Song name
# A B C D E F G H I J K L M N O P Q R S T U V W X Y Z

Straight Faced - Greed Motivation tab

----------------------------------------------------------------------------------
			GREED MOTIVATION - Straight Faced
----------------------------------------------------------------------------------

By: Mike Crucial www.myspace.com/mikecrucial

   Drop D tuning ...

   Verse/Chorus                                         Break
E|------------------------|---------|-----|---------|------------------------|---------|--------|
B|------------------(x )--|---------|-----|---------|------------------(x3)--|---------|--(x )--|
G|------------------------|---------|-----|---------|------------------------|---------|--------|
D|8-6-5-6--3-3-3-3--------|--3-3-3--|--0--|--6-5-3--|--0-0-0-0--0-1-3--------|--6-5-3--|--------|
A|8-6-5-6--3-3-3-3--------|--3-3-3--|--0--|--6-5-3--|--0-0-0-0--0-1-3--------|--6-5-3--|--------|
D|8-6-5-6--3-3-3-3--------|--3-3-3--|--0--|--6-5-3--|--0-0-0-0--0/1-3--------|--6-5-3--|--------|

E|----------------------|-------------------|        |-----------------------------------------||
B|----------------(x )--|-------------------|        |-----------------------------------------||
G|----------------------|-------------------| Repeat |-----------------------------------------||
D|--0-0-0--6-5-3--------|--0-0-0-0-0-0-0-0--| Verse/ |--3-3------------------------------------||
A|--0-0-0--6-5-3--------|--0-0-0-0-0-0-0-0--| Chorus |--3-3------------------------------------||
D|--0-0-0--6-5-3--------|--0-0-0-0-0-0-0-0--|        |--3-3------------------------------------||

==================================================================================
Tap to rate this tab
# A B C D E F G H I J K L M N O P Q R S T U V W X Y Z