Song name
# A B C D E F G H I J K L M N O P Q R S T U V W X Y Z

Straight Faced - Negative tab

----------------------------------------------------------------------------------
		            		   NEGATIVE - Straight Faced
----------------------------------------------------------------------------------

By: Mike Crucial www.myspace.com/mikecrucial

   Drop D tuning ...

   Intro							 Chorus 		  Verse
E|-------------------------------------------|-----------------|------------------|
B|-------------------------------------------|-----------------|------------------|
G|-------------------------------------------|--8-8-8-8-8-8-8--|-----8-8-8-8-8-8--|
D|--0-0-0-0-0-0-0-0-0-0-0-0-0-0-0-0-0-0-0-0--|-----------------|--0---------------|
A|--0-0-0-0-0-0-0-0-0-0-0-0-0-0-0-0-0-0-0-0--|--6-6-6-6-6-6-6--|--0--6-6-6-6-6-6--|
D|--0-0-0-0-0-0-0-0-0-0-0-0-0-0-0-0-0-0-0-0--|-----------------|--0---------------|

------|-----------------------|-------|
(x )--|-----------------(x )--|-------|
------|-----2-----------------|-------|
------|--0--2--3-1-3-5--------|--0-0--|
------|--0--0--3-1-3-5--------|--0-0--|
------|--0-----3-1-3-5--------|--0-0--|

   Repaet Verse/Chorus x2 

   End with D ...

==================================================================================
Tap to rate this tab
# A B C D E F G H I J K L M N O P Q R S T U V W X Y Z