Guitaretab - guitar tabs
Song name
# A B C D E F G H I J K L M N O P Q R S T U V W X Y Z

Straight Faced - Gone Too Far tab

-------------------------------------------------------------------------------
                          GONE TOO FAR - Straight Faced
-------------------------------------------------------------------------------

by Mike Crucial www.myspace.com/mikecrucial

   Drop D tuning ...

   Intro (Bass)			       Verse/Chorus	
E|-----------------------------------|---------------------------------------|
B|-----------------------------(x4)--|---------------------------------(x )--|
G|-----------------------------------|--5-5-5-5--7-8-7--10-10----------------|
D|-----------------------------------|--5-5-5-5--7-8-7--10-10--8-8-----------|
A|--3-3-3-3--5-6-5--8-8--------------|--3-3-3-3--5-6-5--8--8---8-8-----------|
D|-----------------------8-8---------|-------------------------8-8-----------|
[ Tab from: http://www.guitaretab.com/s/straight-faced/174545.html ]
E|----------------------------------|----------------------------------------|
B|----------------------------(x )--|----------------------------------(x )--|
G|--5-5--7-7--8-8--7-10-------------|--5-------------------------------------|
D|--5-5--7-7--8-8--7-10--8-8--------|--5-------------------------------------|
A|--3-3--5-5--6-6--5-8---8-8--------|--3-3-3--6-5-5-----3-3------------------|
D|-----------------------8-8--------|----------------8-----------------------|

				Outro
E|----------------------------|-----------------------------------|----------||
B|----------------------(x )--|-----------------------------(x )--|----------||
G|--5-5--8-7-------5-5--------|--5-5-5-5--7-8-7--10-10------------|--5-5-----||
D|--5-5--8-7--8-8--5-5--------|--5-5-5-5--7-8-7--10-10--8-8-------|--5-5-----||
A|--3-3--6-5--8-8--3-3--------|--3-3-3-3--5-6-5--8--8---8-8-------|--3-3-----||
D|------------8-8-------------|-------------------------8-8-------|----------||

===============================================================================
Related for Gone Too Far tab
Advertisement will be closed in 10 seconds