Song name
# A B C D E F G H I J K L M N O P Q R S T U V W X Y Z

Straight Faced - Change tab

-------------------------------------------------------------------------------
			  CHANGE - Straight Faced
-------------------------------------------------------------------------------

By: Mike Crucial www.myspace.com/mikecrucial

   Drop D tuning ...

   Intro
E|--------------------------------------|-------------------------------------|
B|---------------------------------(x4)-|--------------------------------(x4)-|
G|--------------------------------------|-----------------------5-5-5-5-------|
D|--------------------------------------|--5--0-0-0-0-0-0--1-1--5-5-5-5-------|
A|-------------------------3-3-3-3------|--5--0-0-0-0-0-0--1-1--3-3-3-3-------|
D|--5-5--0-0-0-0-0-0--1-1---------------|--5--0-0-0-0-0-0--1-1----------------|

   Pre-Verse			  Bridge
E|------------------------------|-----------------|--------------------------|
B|------------------------(x4)--|-----------(x4)--|--------------------------|
G|-----------------5-5-5--------|-----------------|--------------------------|
D|--5-5--0-0--1-1--5-5-5--------|--5-5-5-5--------|--5--5--------------------|
A|--5-5--0-0--1-1--3-3-3--------|--5-5-5-5--------|--5--5--------------------|
D|--5-5--0-0--1-1---------------|--5-5-5-5--------|--5--5--------------------|

   Verse					     Chorus
E|-------------------------------------------------|-------------------------|
B|-------------------------------------------(x2)--|-------------------------|
G|-----------------5-5-5------------------5--------|-----------5-5-----------|
D|--5-5--0-0--1-1--5-5-5---5-5--0-0--1-1--5--------|--3-3-3-3--5-5--5-5------|
A|--5-5--0-0--1-1--3-3-3---5-5--0-0--1-1--3--------|--3-3-3-3--3-3--5-5------|
D|--5-5--0-0--1-1----------5-5--0-0--1-1-----------|--3-3-3-3-------5-5------|

E|---------------------------------------------------------------------------|
B|---------------------------------------------------------------------------|
G|-----------------------------5-5-------------------------------------------|
D|--0-0-0-0-0-0-0-0---3-3-3-3--5-5--5-5--0-0-0-0-0-0--3-3-3-3--5-5-5-5-5-----|
A|--0-0-0-0-0-0-0-0---3-3-3-3--3-3--5-5--------------------------------------|
D|--0-0-0-0-0-0-0-0---3-3-3-3-------5-5--------------------------------------|

E|---------------------------------------------------------------------------|
B|---------------------------------------------------------------------------|
G|-----------5-5----------------------------------5-5------------------------|
D|--3-3-3-3--5-5--5-5--0-0-0-0-0-0-0-0---3-3-3-3--5-5--5-5--0----------------|
A|--3-3-3-3--3-3--5-5--0-0-0-0-0-0-0-0---3-3-3-3--3-3--5-5--0----------------|
D|--3-3-3-3-------5-5--0-0-0-0-0-0-0-0---3-3-3-3-------5-5--0----------------|

   Break
E|----------------------------|----------------------------------------------|
B|----------------------(x4)--|----------------------------------------------|
G|----------------------------|----------------------------------------------|
D|--0-0-0-0-0-0--3-5-5--------|--0-0-0-0-0--3-2-----------3-3-3--5-5---------|
A|--0-0-0-0-0-0--3-5-5--------|------------------3-3-3-3---------------------|
D|--0-0-0-0-0-0--3-5-5--------|----------------------------------------------|

					       Bridge
E|-------------------------------------------|-----------------|-------------|
B|-------------------------------------------|-----------(x4)--|-------------|
G|-------------------------------------------|-----------------|-------------|
D|--0-0-0-0-0--3-2---------------------0-----|--5-5-5-5--------|--5----------|
A|------------------3-3-3-3--0-0-0-0---0-----|--5-5-5-5--------|--5----------|
D|-------------------------------------0-----|--5-5-5-5--------|--5----------|

   Repeat Verse/Chorus

===============================================================================
Tap to rate this tab
 
# A B C D E F G H I J K L M N O P Q R S T U V W X Y Z