Song name
# A B C D E F G H I J K L M N O P Q R S T U V W X Y Z

Straight Faced - Lets Do This tab

T1: Steve T, pmk5@mailcity.com, Straight Faced, Let's Do This, 22/06/99

S1: This song can be found on their cd Condition or Punk o Rama 4.
Listen to the CD for timing., Song:Let's Do This
Artist:Straight Faced
Album:Conditioned/Punk o Rama 4
Tuning:Standard
Tabbed By:Steve T

P.M=palm mute
~=let ring

Intro
Repeat 3 times
---------------------------------------------
---------------------------------------------
---------------------------------------------
------5-5-6-6-7-7------5-5-6-6-7-7-----------
--5-5-3-3-4-4-5-5--5-5-3-3-4-4-5-5-----------
--3-3--------------3-3-----------------------

Riff
------------12-------------------------------
------------12-------------------------------
---------------------------------------------
----------------6-6-6--5---------------------
--5--5-5-5------4-4-4--3---------------------
--3--3-3-3-----------------------------------
  ~ [-----]
      P.M

Riff 2
---------------------------------------------
---------------------------------------------
---------------------------------------------
--------------------6-6-6-6------------------
--5-5-5-5--5-5-5-5--4-4-4-4------------------
--3-3-3-3--3-3-3-3---------------------------

Riff 3
Repeat this part 4 times:      |then play:
-------------------------------|--------------
-------------------------------|--------------
-------------------------------|--------------
--------------------6-6-6-6----|-----6-6-6--5-
--5-5-5-5--5-5-5-5--4-4-4-4----|-5---4-4-4--3-
--3-3-3-3--3-3-3-3-------------|-3------------
 [-------------------------]     ~

Outro:
----------------------------------------------
----------------------------------------------
----------------------------------------------
--6-6-6--5---6-6-6--5---6-6-6-5-5-5-----------
--4-4-4--3---4-4-4--3---4-4-4-3-3-3-5---------
------------------------------------3---------
                                    ~

Tap to rate this tab
 
# A B C D E F G H I J K L M N O P Q R S T U V W X Y Z