Song name
# A B C D E F G H I J K L M N O P Q R S T U V W X Y Z

Straight Jacket Legends - Paul Shakes tab

-------------------------------------------------------------------------------
                             SONG NAME - Paul Shakes
-------------------------------------------------------------------------------
Tabbed by:Connor Smith
E-mail:connorsmith-1995@hotmail.co.uk

Tuning:Standard

Intro

e|---------------------------------------------------------------------------|
B|---------------------------------------------------------------------------|
G|-----7-----7-----6-----9-----6h7-------------------------------------------|
D|-7-7---7-7---7-7---7-7---7-7-----------------------------------------------|
A|---------------------------------------------------------------------------|
E|---------------------------------------------------------------------------|X2

e|---------------------------------------------------------------------------|
B|---------------------------------------------------------------------------|
G|-7~--------7-7-----------7-------------------------------------------------|
D|-7~--------7-7-----------7-------------------------------------------------|
A|-5~--------5-5-----------5-------------------------------------------------|
E|--------------------------------3-2-3-5~-----------------------------------|
                                                   AH
e|---------------------------------------------------------------------------|
B|---------------------------------------------------------------------------|
G|-----7-----7-----6-----9-----6h7-----7-----7-6h7-9-------------------------|
D|-7-7---7-7---7-7---7-7---7-7-----7-7---7-7---------------------------------|
A|---------------------------------------------------------------------------|
E|---------------------------------------------------------------------------|

e|---------------------------------------------------------------------------|
B|---------------------------------------------------------------------------|
G|-7-7-7-7------------------------------7-7-7-7------------------------------|
D|-7-7-7-7-----------9-9-9-9------------7-7-7-7-----------9-9-9-9------------|
A|-5-5-5-5-----------9-9-9-9------------5-5-5-5-----------9-9-9-9------------|
E|----------3-2-3-5--7-7-7-7--3-2-3-5------------3-2-3-5--7-7-7-7---3-2-3-5--|

e|---------------------------------------------------------------------------|
B|---------------------------------------------------------------------------|
G|-----7-----7-----6-----9-----6h7-------------------------------------------|
D|-7-7---7-7---7-7---7-7---7-7-----------------------------------------------|
A|---------------------------------------------------------------------------|
E|---------------------------------------------------------------------------|X3
                        AH
e|---------------------------------------------------------------------------|
B|---------------------------------------------------------------------------|
G|----------7-----7-6h7-9----------------------------------------------------|
D|------7-7---7-7------------------------------------------------------------|
A|---------------------------------------------------------------------------|
E|---------------------------------------------------------------------------|

Verse (Palm mute)

e|---------------------------------------------------------------------------|
B|---------------------------------------------------------------------------|
G|-7-----------------------7-------------------------------------------------|
D|-7X16----9--------5------7x16-----9---------5------------------------------|
A|-5-------9X8------5X8----5--------9x8-------5x5----------------------------|
E|---------7--------3---------------7---------3------------------------------|

Listen for timings!

e|---------------------------------------------------------------------------|
B|---------------------------------------------------------------------------|
G|--7------------------------------------------------------------------------|
D|--x-x16--------------------------------------------------------------------|
A|--5------------------------------------------------------------------------|
E|---------------------------------------------------------------------------|

Chorus

e|---------------------------------------------------------------------------|
B|---------------------------------------------------------------------------|
G|-7----7--------------------------------------------------------------------|
D|-7----7--5-------7-9---9-9--5---7------------------------------------------|
A|-5----5--5-------7-9---9-9--5---7------------------------------------------|
E|---------3-------5-7---7-7--3---5------------------------------------------|x4

e|---------------------------------------------------------------------------|
B|---------------------------------------------------------------------------|
G|-----7-----7-----6-----9-----6h7-------------------------------------------|
D|-7-7---7-7---7-7---7-7---7-7-----------------------------------------------|
A|---------------------------------------------------------------------------|
E|---------------------------------------------------------------------------|X4

e|---------------------------------------------------------------------------|
B|---------------------------------------------------------------------------|
G|-7~--------7-7-----------7-------------------------------------------------|
D|-7~--------7-7-----------7-------------------------------------------------|
A|-5~--------5-5-----------5-------------------------------------------------|
E|--------------------------------3-2-3-5~-----------------------------------|
                                                   AH
e|---------------------------------------------------------------------------|
B|---------------------------------------------------------------------------|
G|-----7-----7-----6-----9-----6h7-----7-----7-6h7-9-------------------------|
D|-7-7---7-7---7-7---7-7---7-7-----7-7---7-7---------------------------------|
A|---------------------------------------------------------------------------|
E|---------------------------------------------------------------------------|

Bridge

e|---------------------------------------------------------------------------|
B|---------------------------------------------------------------------------|
G|-7-7-7-7------------------------------7-7-7-7------------------------------|
D|-7-7-7-7-----------9-9-9-9------------7-7-7-7-----------9-9-9-9------------|
A|-5-5-5-5-----------9-9-9-9------------5-5-5-5-----------9-9-9-9------------|
E|----------3-2-3-5--7-7-7-7--3-2-3-5------------3-2-3-5--7-7-7-7---3-2-3-5--|

e|---------------------------------------------------------------------------|
B|---------------------------------------------------------------------------|
G|-----7-----7-----6-----9-----6h7-------------------------------------------|
D|-7-7---7-7---7-7---7-7---7-7-----------------------------------------------|
A|---------------------------------------------------------------------------|
E|---------------------------------------------------------------------------|X4

Solo

e|---------------------------------------------------------------------------|
B|---------------------------------------------------------------------------|
G|-7-7-7-7-7-6-4-2--7-6-7-9-7-9-11-7-11-14-----------------------------------|
D|---------------------------------------------------------------------------|
A|---------------------------------------------------------------------------|
E|---------------------------------------------------------------------------|

e|-17P15P14-17P15P14-17P15P14-17P15P14-17P15P14-17b19br17~--17-14-15--14-----------------|
B|------------------------------------------------------------------17--15----15b17br15--|
G|---------------------------------------------------------------------14----------------|
D|---------------------------------------------------------------------------------------|
A|---------------------------------------------------------------------------------------|
E|---------------------------------------------------------------------------------------|

Play under the solo

e|---------------------------------------------------------------------------|
B|---------------------------------------------------------------------------|
G|-7-7-7-7------------------------------7-7-7-7------------------------------|
D|-7-7-7-7-----------9-9-9-9------------7-7-7-7-----------9-9-9-9------------|
A|-5-5-5-5-----------9-9-9-9------------5-5-5-5-----------9-9-9-9------------|
E|----------3-2-3-5--7-7-7-7--3-2-3-5------------3-2-3-5--7-7-7-7---3-2-3-5--|

Palm mute all

e|---------------------------------------------------------------------------|
B|-7-7-----7-7-----7-7-----7-7----7-7-----7-7----7-7-------------------------|
G|-----7-7-----7-7-----7-7----7-7-----7-7----7-7-----6-6-7-7-----------------|
D|---------------------------------------------------------------------------|
A|---------------------------------------------------------------------------|
E|---------------------------------------------------------------------------|X2


Last chorus, Watch for a different techique being used but still using the same notes.

e|---------------------------------------------------------------------------|
B|---------------------------------------------------------------------------|
G|-7-7-7-7------------------------------7-7-7-7------------------------------|
D|-7-7-7-7-----------9-9-9-9------------7-7-7-7-----------9-9-9-9------------|
A|-5-5-5-5-----------9-9-9-9------------5-5-5-5-----------9-9-9-9------------|
E|----------3-2-3-5--7-7-7-7--3-2-3-5------------3-2-3-5--7-7-7-7---3-2-3-5--|x3

e|---------------------------------------------------------------------------|
B|---------------------------------------------------------------------------|
G|-----7-----7-----6-----9-----6h7-------------------------------------------|
D|-7-7---7-7---7-7---7-7---7-7-----------------------------------------------|
A|---------------------------------------------------------------------------|
E|---------------------------------------------------------------------------|X11
                       AH
e|---------------------------------------------------------------------------|
B|---------------------------------------------------------------------------|
G|-----7-----7-----6h7-9-----------------------------------------------------|
D|-7-7---7-7---7-7-----------------------------------------------------------|
A|---------------------------------------------------------------------------|
E|---------------------------------------------------------------------------|


************************************

| /   slide up
| \   slide down
| h   hammer-on
| p   pull-off
| ~   vibrato
| +   harmonic
| x   Mute note
| b   Bend
| pb  Pre-bend
| br  Bend release
| pbr Pre-bend release
| brb Bend release bend

************************************
Tap to rate this tab
# A B C D E F G H I J K L M N O P Q R S T U V W X Y Z