Song name
# A B C D E F G H I J K L M N O P Q R S T U V W X Y Z

Straight Line Stitch - Remission tab

e-----------------------------------------------------|
b-----------------------------------------------------|
g-----------------------------------------------------|
d-1-1-1-1-1-1-1-1-4-4-4-4-4-4-4-4-7-7-7-7-7-7-7-7-7-7-|
a-1-1-1-1-1-1-1-1-4-4-4-4-4-4-4-4-7-7-7-7-7-7-7-7-7-7-|
d-1-1-1-1-1-1-1-1-4-4-4-4-4-4-4-4-7-7-7-7-7-7-7-7-7-7-|

e---------------------------------------------------------------|
b---------------------------------------------------------------|
g---------------------------------------------------------------|
d-1-1-1-1-1-1-1-1-4-4-4-4-4-4-4-4-7-7-7-7-7-7-7-7-7-7---9-7-5-0-|
a-1-1-1-1-1-1-1-1-4-4-4-4-4-4-4-4-7-7-7-7-7-7-7-7-7-7---9-7-5-0-|
d-1-1-1-1-1-1-1-1-4-4-4-4-4-4-4-4-7-7-7-7-7-7-7-7-7-7---9-7-5-0-|


Repeat 6 times and the last time do not do the (9-7-5-0) part and paw mute the
thats the intro of remission......my email is twistadrian@hotmail.com ........and 
is www.myspace.com/sk8ground.................

www.myspace.com/straightlinestitch
Tap to rate this tab
# A B C D E F G H I J K L M N O P Q R S T U V W X Y Z