Song name
# A B C D E F G H I J K L M N O P Q R S T U V W X Y Z

Straight Line Stitch - Yesterdays Gone tab

-------------------------------------------------------------------------------
                             Yesterdays Gone by Straight Line Stitch
-------------------------------------------------------------------------------
Tabbed by: Joe L
E-mail: JLukowicz12@gmail.com

Tuning: 1/2 step down.

ATTENTION: This is my first submitted tab. IT IS NOT PERFECT, but close to the song.
I am specifically tabbing the LEAD part at both the intro and the fill beginning the
second verse.

ALSO: Be aware that if you are playing along with the song, the rythm guitar does some
flourishes and licks during chord changes and such,
and it can throw you off and think this tab is way off.

There is a decent video on youtube of someone doing the cover of the rythm, and I may
tab that out as soon as I nail it down.
Because you can see the neck of the guitar, you can also figure out what chords he is
playing and just teach yourself.
Video URL: http://www.youtube.com/watch?feature=player_detailpage&v=ehmI3DgNZms
<--Copy/paste to watch and learn. I may also make a vid once I nail this down.



e|---------------------------------------------------------------------------|
B|--1---1-0--0h1p0--------------------------1p0------------------------------|
G|------------------0-----0--2--2h4--2-----------2-----4h5p4-----------------|
D|---------------------------------------------------------------------------|
A|---------------------------------------------------------------------------|
E|---------------------------------------------------------------------------|

e|---------3------3h5--5-5~----7--8--7h8-7h8--7~---7-8/10-8~-----10h12p10----|
B|--1h3-/5---5p3-------------------------------------------------------------|
G|---------------------------------------------------------------------------|
D|---------------------------------------------------------------------------|
A|---------------------------------------------------------------------------|
E|---------------------------------------------------------------------------|



    Second Lead part (Starts at 1:50 in the song)
e|---------------------------------------------------------------------------|
B|--1---1-0--0h1p0-----------------------------------------------------------|
G|-----------------0----0--2--2h4--2~--4h5p4--5-4-5/7--9h10p9h10p9--7-9------|
D|---------------------------------------------------------------------------|
A|---------------------------------------------------------------------------|
E|---------------------------------------------------------------------------|

e|--------------------------------------------------3h5p3~-------------------|
B|----8-8-8\6--6--3h5p3\1h3~--1h3-3/5--3-3\1-3-------------------------------|
G|---------------------------------------------------------------------------|
D|---------------------------------------------------------------------------|
A|---------------------------------------------------------------------------|
E|---------------------------------------------------------------------------|

Its a bit tricky, and at the time of transcribing this, I could not play it all the way
through without stopping, but it should be very close.


PLEASE e-mail me with corrections or additions!!! I will give you credit for it!
This is a fantastic song and I cant believe that its been out for sooo long and there
are NO accurate tabs for it!


************************************

| /   slide up
| \   slide down
| h   hammer-on
| p   pull-off
| ~   vibrato

************************************
Tap to rate this tab
# A B C D E F G H I J K L M N O P Q R S T U V W X Y Z