Song name
# A B C D E F G H I J K L M N O P Q R S T U V W X Y Z

Straight Line Stitch - Yesterdays Gone tab

-------------------------------------------------------------------------------
                        YESTERDAY'S GONE - Straight Line Stitch
-------------------------------------------------------------------------------
Tabbed by:Joe Lukowicz
E-mail:JLukowicz12@gmail.com

Tuning: 1/2 step down

INTRO RIFF:

~Guitar 1~
   Am                        Em                        F
e|-0---------------------------------------------------0----------------------|
B|-1-----1---1p0-----0h1p0---0---0------0--------------1----1-----1-----1h3p1-|
G|-2---2---2-----2-----------0-----0-----------2h4p2---2------2-------2-------|
D|-2-2-------------2---------2-------2-------2---------3--3-----3---3---------|
A|-0-------------------------2-2-----------2-----------0----------------------|
E|---------------------------0------------------------------------------------|

   G                      play twice, on second time, just stum the G chord a few times.
e|-3------3-------------------------------------------------------------------|
B|-3--3/5---5-3\1-0-----------------------------------------------------------|
G|-0----------------2-0-------------------------------------------------------|
D|-0--------------------0-----------------------------------------------------|
A|-2--------------------------------------------------------------------------|
E|-3--------------------------------------------------------------------------|


~Guitar 2 (Lead)~

e|---------------------------------------------------------------------------|
B|--1---1p0--0h1p0--------------------------1p0------------------------------|
G|------------------0-----0--2--2h4--2-----------2-----4h5p4-----------------|
D|---------------------------------------------------------------------------|
A|---------------------------------------------------------------------------|
E|---------------------------------------------------------------------------|

e|---------3------3h5--5-5~----7--8--7h8-7h8--7~---7-8/10-8~-----10h12p10----|
B|--1h3-/5---5p3-------------------------------------------------------------|
G|---------------------------------------------------------------------------|
D|---------------------------------------------------------------------------|
A|---------------------------------------------------------------------------|
E|---------------------------------------------------------------------------|


    ~Second Lead part (Starts at 1:50 in the song)~
e|---------------------------------------------------------------------------|
B|--1---1p0--0h1p0-----------------------------------------------------------|
G|-----------------0----0--2--2h4--2~--4h5p4--5-4-5/7--9h10p9h10p9--7-9------|
D|---------------------------------------------------------------------------|
A|---------------------------------------------------------------------------|
E|---------------------------------------------------------------------------|

e|--------------------------------------------------3h5p3~-------------------|
B|----8-8-8\6--6--3h5p3\1h3~--1h3-3/5--3-3\1-3-------------------------------|
G|---------------------------------------------------------------------------|
D|---------------------------------------------------------------------------|
A|---------------------------------------------------------------------------|
E|---------------------------------------------------------------------------|


VERSE:

             "I'd catch the next train goin' anywhere..."
e|------------3---------------------------------------------------------------|
B|--5---------3-----------------------------------1---------------------------|
G|--5---------5-----------------------------------2---------------------------|
D|--7---------5-----------------------------------3---------------------------|
A|--7---------3-----------------------------------3---------------------------|
E|--5---------------------------------------------1---------------------------|

  "...If I knew you were there."     "Swim across the ocean, sail the seven seas"
e|----------------------------------------------------3-----------------------|
B|------3--------------------------5------------------3---------------------1-|
G|------4--------------------------5------------------5---------------------2-|
D|------5--------------------------7------------------5---------------------3-|
A|------5--------------------------7------------------3---------------------3-|
E|------3--------------------------5----------------------------------------1-|

 "Just to have you here with me"              "All I ever asked for..."
e|--------------------------------1-0---------------------3-------------------|
B|-------3---------------------------------5--------------3-------------------|
G|-------4---------------------------------5--------------5-------------------|
D|-------5---------------------------------7--------------5-------------------|
A|-------5---------------------------------7--------------3-------------------|
E|-------3---------------------------------5----------------------------------|

  "...All I ever wanted, now has flashed before my eyes-"
e|----------------------------------------------------------------------------|
B|-----------------1-----------------3--------------------------------5-------|
G|-----------------2-----------------4--------------------------------6-------|
D|-----------------3-----------------5--------------------------------7-------|
A|-----------------3-----------------5--------------------------------7-------|
E|-----------------1-----------------3--------------------------------5-------|

  "so many broken promises. When you run out of time."
e|-----------3----------------------------------------------------------------|
B|-----------3----------1-------------5-----------3---------------------------|
G|-----------5----------2-------------6-----------4---------------------------|
D|-----------5----------3-------------7-----------5---------------------------|
A|-----------3----------3-------------7-----------5---------------------------|
E|----------------------1-------------5-----------3---------------------------|



PRE-CHORUS:
                                    "The morning that you left I felt a..."
e|--10-10-10-10-10-10-10-10-10-10-10-10-12-12-12-12-12-12-15-15-15-15-15-15--|
B|--10-10-10-10-10-10-10-10-10-10-10-10-10-10-10-10-10-10-10-10-10-10-10-10--|
G|---------------------------------------------------------------------------|
D|---------------------------------------------------------------------------|
A|---------------------------------------------------------------------------|
E|---------------------------------------------------------------------------|

  "...pain no one could heal, I wish it wasn't real."
e|---------------------------------------------------------------------------|
B|----1--------------------------3-------------------------------------------|
G|----2--------------------------4-------------------------------------------|
D|----3--------------------------5-------------------------------------------|
A|----3--------------------------5-------------------------------------------|
E|----1--------------------------3-------------------------------------------|

                                     "And I can still remember all..."
e|--10-10-10-10-10-10-10-10-10-10-10-10-12-12-12-12-12-12-15-15-15-15-15-15--|
B|--10-10-10-10-10-10-10-10-10-10-10-10-10-10-10-10-10-10-10-10-10-10-10-10--|
G|---------------------------------------------------------------------------|
D|---------------------------------------------------------------------------|
A|---------------------------------------------------------------------------|
E|---------------------------------------------------------------------------|

  "the laughter that we shared, life is so unfair."
e|---------------------------------------------------------------------------|
B|-----1------------------------3--------------------------------------------|
G|-----2------------------------4--------------------------------------------|
D|-----3------------------------5--------------------------------------------|
A|-----3------------------------5--------------------------------------------|
E|-----1------------------------3--------------------------------------------|



CHORUS:

  "You lifted me up and fueld my dreams."
e|---------------------------------000-0-----000-0---------------------------|
B|-6-------------3-----------------333---3---333---3-------------------------|
G|-7-------------4-----------------222-----2-222-----2-----------------------|
D|-8-------------5-----------------000-------000-----------------------------|
A|-8-------------5-----------------------------------------------------------|
E|-6-------------3-----------------------------------------------------------|

   "Now yesterday's gone. When I breathe, I whisper your name in memory"
e|--------------------------------------------------------------------000-0-----000-0----|
B|-----1--------------------------6-----------------------3-----------333---3---333---3--|
G|-----2--------------------------7-----------------------4-----------222-----2-222-----2|
D|-----3--------------------------8-----------------------5-----------000-------000------|
A|-----3--------------------------8-----------------------5------------------------------|
E|-----1--------------------------6-----------------------3------------------------------|

 "Cuz yesterday's gone, and I know, I can move on- From that cold December rain."
e|----------------------------------------------3-----------------------------5--|
B|-----1------------------------6---------------3--------------5--------------5--|
G|-----2------------------------7---------------5--------------6--------------7--|
D|-----3------------------------8---------------5--------------7--------------7--|
A|-----3------------------------8---------------3--------------7--------------5--|
E|-----1------------------------6------------------------------5-----------------|

   "Straight from my heart, I wish you could see, how I've changed
e|--------------------------------------------3---------------0-0------0------|
B|--------------------6-----------------------3---------------3---3------3----|
G|--------------------7-----------------------5---------------2-----2------2~-|
D|--------------------8-----------------------5---------------0---------------|
A|--------------------8-----------------------3-------------------------------|
E|--------------------6-------------------------------------------------------|


Thats the basic structure of the song. Listen to it while you read this and play, and 
you will realize how easy this song is.

This next part is the bridge section.

BRIDGE:

             "Oh the world    still    turns, What does it mean? I silence the scream"
e|-0000000000000-------------------------------3------------------------------|
B|-3333333333333-------111-----3--------5------3------------6-----------------|
G|-2222222222222-------222-----4--------6------5------------7-----------------|
D|-0000000000000-------333-----5--------7------5------------8-----------------|
A|---------------------333-----5--------7------3------------8-----------------|
E|---------------------111-----3--------5-------------------6-----------------|

   "It feels like I'm fall- ing   down. What does it mean? what does it mean?
e|---------------------------------------3------------------------------------|
B|---------------------1-----3-----5-----3------------6------------------3----|
G|---------------------2-----4-----6-----5------------7------------------4----|
D|---------------------3-----5-----7-----5------------8------------------5----|
A|---------------------3-----5-----7-----3------------8------------------5----|
E|---------------------1-----3-----5------------------6------------------3----|

So yea, listen to the song and you'll figure out what order to play everything in and 
how many times

************************************

| /   slide up
| \   slide down
| h   hammer-on
| p   pull-off
| ~   vibrato
| +   harmonic
| x   Mute note
| b   Bend
| pb  Pre-bend
| br  Bend release
| pbr Pre-bend release
| brb Bend release bend
Tap to rate this tab
# A B C D E F G H I J K L M N O P Q R S T U V W X Y Z