Song name
# A B C D E F G H I J K L M N O P Q R S T U V W X Y Z

Straight Outta Junior High - Choader Boy tab

Artist: Straight Outta Junior High (www.sojh.com)
Song: Choader Boy
Album: Here's a Ray of Hope to Someone with an Inferiority Complex (2001)

Hey, this is the intro and main riff for SOJH's "Choader Boy," from the
album "Here's a Ray of Hope to Someone with an Inferiority Complex."  It's 90-100% accurate!

e|------------------|
B|---5--------------|
G|-5---5--7--5---5--| X 3, then
D|-------------5----|
A|------------------|
E|------------------|

e|-----------------|
B|---5--5/6\5---5--|
G|-5----------5----|
D|-----------------|
A|-----------------|
E|-----------------|

Questions/comments: Eamon (accordionmartyr@hotmail.com)
Tap to rate this tab
# A B C D E F G H I J K L M N O P Q R S T U V W X Y Z