Guitaretab - guitar tabs
Song name
# A B C D E F G H I J K L M N O P Q R S T U V W X Y Z

Straight Reads The Line - The Jig Is Up tab

Tuning:Drop C
Straight Reads The line-The Jig Is Up
http://www.myspace.com/straightreadstheline
hey guys this is the first srtl tab on this site, it might not be the greatest but here 
is and it only half of the song. hope u like it:)
[ Tab from: http://www.guitaretab.com/s/straight-reads-the-line/118129.html ]
-------------------------------------------------------------------------|
-------------4p3p1------------44-----------------------------------------|
-------------------5p3p2-2----77-----------------------------------------|
-------------------------------------------------------------------------|
----------------------------0--------------------------------------------|
--0-0-0-0-00----------------0----00-5/3-0-7/6-0-5/3-0-2h3-3p2-00-7b-0-6b-|
    *   *                   *    **     *     *     *         **    *
-------------------------------------------------------------------------|
---44--------------------44----------------------------------------------|
---77--------------------77----------------------------------------------|
-------------------------------------------------------------------------|
--------------------------------------------------------------------000--|
-0----00-5/3-0-7/6-0-000----00-5/3-0-7/6-0-5/3-0-2h3-3p2-00-7b-0-6b-000--|
 *    **     *     * ***    **     *     *     *         **    *    ***
-------------------------------------------------------------------------|
-------------------------------------------------------------------------|
-14/12/14----14/12/14----15151515-14/12/14----14/12/14-------------------|
-------------------------------------------------------------------------|
-12/10/12-00-12/10/12-00-13131313-12/10/12-00-12/10/12-00----------------|
----------00----------00-------------------00----------00----------------|
          **          **                   **          **
------------10101010-----------------------------------------------------|
18-17-15----15151510-----------------------------------------------------|
---------17------------7-5/7---------------------------------------------|
-------------------------------------2-3-2h3p2---------2-3-2h3p3---------|
---------------------0-5-3/5-----3-5-----------3-5-2-3-----------3-5-----|
---------------------0-------5-7-----------------------------------------|
                     *
-------------------------------------------------------------------------|
------------------------------------15151515151515151616161616161616-----|
---14/12/14----14/12/14----15151515--------------------------------------|
-------------------------------------------------------------------------|
-0-12/10/12-00-12/10/12-00-13131313--------------------------------------|
-0----------00----------00-----------------------------------------------|
 *          **          **
----------------------10101010-------------------------------------------|
----------18-17-15----15151515-------------------------------------------|
-------------------17----------------------------------------------------|
-------------------------------------------------------------------------|
-00000000---------------------------00-----------------------------------|
-00000000----------------------0-0--00--000000-0-0-0--0-0000000-0-0-0----|
 ********                           **  ****** * * *  * ******* * * *
-------------------------------------------------------------------------|
-------------------------------------------------------------------------|
-------------------------------------------------------------------------|
---------------------------------------0~-/------------------------------|
------------------------------------00-0~-/pickslide---------------------|
-000000-0-0-0--0-0000000-0-0-0-12/--00-0~-/------------------------------|
 ****** * * *  * ******* * * *
-------------------------------------------------------------------------|
-------------------------------------------------------------------------|
------------------------------------------10101010-5555------------------|
-------------------------------------------------------------------------|
------------------------------------------8-8-8-8--3333------------------|
-000000-1b-000000-1b-1b-000000-0-0-000000--------------------------------|
 ******    ******       ****** * * ******


http://www.myspace.com/straightreadstheline
or http://www.teamdistort.com/index2.php
Related for The Jig Is Up tab