Song name
# A B C D E F G H I J K L M N O P Q R S T U V W X Y Z

Straight Reads The Line - I Love You And Goodbye tab

-------------------------------------------------|
-------------------------------------------------|
-------------------------------------------------|
-------12----15p12-------15p12----15p12----15p12-|
-12-13----12-------12-13-------12-------12-------|
-------------------------------------------------|

---------------------------------------------|
---------------------------------------------|
----------------------------------17-14------|
-------12----15p12-------12-15-17-------15---|
-12-13----12-------12-13---------------------|
---------------------------------------------|

-------------------------|
-------------------------|
-------------12-14-10-12-|
-------12-15-------------|4 times
-12-13-------------------|
-------------------------|

-------------------------------------------------|
-------------------------------------------------|
-------------------------------------------------|
-------12----15p12-------15p12----15p12----15p12-|
-12-13----12-------12-13-------12-------12-------|
-------------------------------------------------|

---------------------------------------------|
---------------------------------------------|
----------------------------------17-14------|
-------12----15p12-------12-15-17-------15---|
-12-13----12-------12-13---------------------|
---------------------------------------------|

------------------------------------------------------------------
-1515151515151515131313131313131310101010101010101111111111111111-
------------------------------------------------------------------|
------------------------------------------------------------------|
------------------------------------------------------------------|
------------------------------------------------------------------|

------------------------------------------------------------------
-1515151515151515131313131313131317171717171717171818181818181818-
------------------------------------------------------------------|
------------------------------------------------------------------|
------------------------------------------------------------------|
------------------------------------------------------------------|

------------------------------------|
------------------------------------|
-10---101010----1010-9---999---99---|
------------------------------------|
-8----8-8-8-----8-8--7---777---77---|
---00--------00-------00-----00-----|

-------------------------------------|
-------------------------------------|
-10---101010----14-12-9----999----97-|
-------------------------------------|
-8----8-8-8-----12-10-7----777----75-|
---00--------00---------00-----00----|

-----------------------|
-----------------------|
-----------------------|
-----------3-2---------|
-0-1-3-1-0-----3-------|
-----------------------|
Tap to rate this tab
# A B C D E F G H I J K L M N O P Q R S T U V W X Y Z