Song name
# A B C D E F G H I J K L M N O P Q R S T U V W X Y Z

Strange Boys - Should Have Shot Paul tab

-----------------------------------------------------------------------------
			     Should of Shot Paul - Strange Boys
-----------------------------------------------------------------------------


e--------5--------|
B---------5-------|
G-----7b---7--5---|
D--7------------7-|
A--7------------7-|
E--5------------5-|

Thats the main riff keep playin around with the notes you play between the A's.

Every so often it goes:

D, C, A

And the last time, before the lead kicks in  it goes:

A, G, E


Then:

e|---------------------------|
B|-7-5-----------------5-----|
G|-----6-4-2-4---2-4/6---6-4-|
D|-------------4-------------|
A|---------------------------|
E|---------------------------|


A                F#m
Should have shot Paul

At 1:13 it goes:

B7
Ahhhhhhhhhhhhhh


There's two bits of lead over A and F#m

  1st              2nd
e|-----------------|-------------------------|
B|-----------------|---5------3------2-------|
G|-6--4--2-4--6----|-6---6--4---4--2---2--4--|
D|-----------------|-------------------------|

http://www.roughtraderecords.com/strangeboys

Tabber: G. Davey

majongmaster@googlemail.com

Tap to rate this tab
 
# A B C D E F G H I J K L M N O P Q R S T U V W X Y Z