Song name
# A B C D E F G H I J K L M N O P Q R S T U V W X Y Z

Strange Boys - Walk On The Bleach tab

-----------------------------------------------------------------------------
			     A Walk On The Bleach - The Strange Boys
-----------------------------------------------------------------------------
Tabbed by:N.B
Email: majongmaster@googlemail.com

Tuning: Standard

Verses

e|-------10------9------7-----|
B|-----10-----11------7-------|
G|---11-----11------7---------|
D|-12-----11------9-----------|
A|----------------------------|
E|----------------------------|

Bridge:

G, Gm, D, Bm

Repeat Verse, then back to bridge and theres a little bit of 
lead on the last bridge, just after playing the D, which goes:

e|---7---9---10------------|
B|-7-----------------------|

When the drums kick in its just

D, G over and over

Heres part of the solo

e|--------------------------------------10----10----------------)-(--|
B|-----------------------------------12----12----12\10--8-10-8-10-10-|
G|--9/11-11-11-11-11-11-11-11\9-7------------------------------------|
D|--------------------------------9----------------------------------|
A|-------------------------------------------------------------------|
E|-------------------------------------------------------------------|
Tap to rate this tab
 
# A B C D E F G H I J K L M N O P Q R S T U V W X Y Z