Strange Boys - Woe Is You And Me tab

-------------------------------------------------------------------------------
			     WOE IS YOU AND ME - The Strange Boys
-------------------------------------------------------------------------------
Tabbed by: DPL
Email: nizibian@gmail.com

Tuning: Standard (EADGBe)

Intro
e|------------9------------9----9--9--9-------15-------15--------------------|
B|-9--9--9--9-9-10~-10~-10~910-11-11-11-10-11----10-11----10-11--------------|
G|-10-10-10-10--10~-10~-10~-10-11-11-11--------------------------------------|
D|---------------------------------------------------------------------------|
A|---------------------------------------------------------------------------|
E|---------------------------------------------------------------------------|


Chorus
e|-----------44--------------------------------------------------------------|
B|-6-6666-4-4444-6-6666-66-666-----------------------------------------------|
G|-6-6666-5-5555-6-6666-66-666-----------------------------------------------|
D|-6-6666-6-6666-6-6666-66-666-----------------------------------------------|
A|-4-4444-6-6666-4-4444-44-444-----------------------------------------------|
E|--------4-4--4-------------------------------------------------------------|


Verse
e|---------------------------------------------------------------------------|
B|-6-6666-66-666-6-6666-66-666-6-6666-4-4444-6-6666-66-666-------------------|
G|-6-6666-66-666-6-6666-66-666-6-6666-5-5555-6-6666-66-666-------------------|
D|-6-6666-66-666-6-6666-66-666-6-6666-6-6666-6-6666-66-666-------------------|
A|-4-4444-44-444-4-4444-44-444-4-4444-6-6666-4-4444-44-444-------------------|
E|------------------------------------4-4444---------------------------------|


Bridge
e|--9--9--9-9-9----------------------------15-----15-----15-----15-----------|
B|--9--9--9-9-9-10-10-101010-11-11-11-10-11--10-11--10h11--10h11-------------|
G|-10-10-101010-10-10-101010-11-11-11----------------------------------------|
D|-11-11-111111-10-10-101010-11-11-11----------------------------------------|
A|-11-11-111111--8--8--8-8-8--9--9--9----------------------------------------|
E|--9--9--9-9-9--------------------------------------------------------------|


Solo
e|--9-----------9-9-----9----------------------------------------------------|
B|--9-----------9-------9----------111111111111111111111111------------------|
G|-10-11br-9---10--11b-10-11br-9---111111111111111111111111------------------|
D|-11-------11-11------11-------11-111111111111111111111111------------------|
A|-11----------11------11-----------9-9-9-9-9-9-9-9-9-9-9-9------------------|
E|--9-----------9-------9----------------------------------------------------|


End
e|-----------44--------------------------------------------------------------|
B|-6-6666-4-4444-6-6666-6--6-------------------------------------------------|
G|-6-6666-5-5555-6-6666-6--6-------------------------------------------------|
D|-6-6666-6-6666-6-6666-6--6-------------------------------------------------|
A|-4-4444-6-6666-4-4444-4--4-------------------------------------------------|
E|--------4-4--4-------------------------------------------------------------|


Intro
Chorus
Verse x2
Bridge
Chorus
Verse x2
Bridge
Chorus
Verse x2
Bridge
Chorus
Solo
End

************************************

| /   slide up
| \   slide down
| h   hammer-on
| p   pull-off
| ~   vibrato
| +   harmonic
| x   Mute note
| b   Bend
| pb  Pre-bend
| br  Bend release
| pbr Pre-bend release
| brb Bend release bend

************************************
Tap to rate this tab
 
# A B C D E F G H I J K L M N O P Q R S T U V W X Y Z