Strange Boys - Death And All The Rest tab

------------------------------------------
The Strange Boys - Death and all the rest
------------------------------------------

Tabbed by:NB


Tuning:Standard


C, G

with this little bit of lead

e|-----------------------------------|
B|-4-3-1---1-------------------------|
G|-------2---------------------------|
D|-----------------------------------|
A|-----------------------------------|
E|-----------------------------------|

Occasionally the lead is played thusly

e|-----------------------------------|
B|-4p3--3----4-3-1---1---------------|
G|-----5-----------2-----------------|
D|-----------------------------------|
A|-----------------------------------|
E|-----------------------------------|

Then back to the C.


Chorus: Dm, C, Dm, G


************************************

| /   slide up
| \   slide down
| h   hammer-on
| p   pull-off
| ~   vibrato
| +   harmonic
| x   Mute note
| b   Bend
| pb  Pre-bend
| br  Bend release
| pbr Pre-bend release
| brb Bend release bend

************************************
Tap to rate this tab
 
# A B C D E F G H I J K L M N O P Q R S T U V W X Y Z