Strange Boys - No Way For A Slave To Behave tab

-------------------------------------------------
The Strange Boys - No way for a slave to behave
-------------------------------------------------

Main Riff


e|----3-0--------3-3-2-0-------------|
B|----0---0--------------3-1---------|
G|----0-----0------------------------|
D|-----------------------------------|
A|-----------------------------------|
E|--3----------0---------------------|



Verse:G, G7, C, D

Just strum the chords down, then hit the high E of each one.
Simple.

Merry Christmas
Tap to rate this tab
 
# A B C D E F G H I J K L M N O P Q R S T U V W X Y Z