Strange Boys - Be Brave tab

Be Brave - Strange Boys

Tabbed by Jackson Geoffrey

Chords Used: F,Ab,Eb

Same 3 chord progression continued throughout the song as below.

e------6-6-6-6--6-6-6---6-6-9-|
A------6-6-6-6--6-7-7--8-8----|  
D------7-7-7-7--6-7-7---------|
G------8-8-8-8--6-7-7---------|
A------8-8-8-8--6-6-6---------|
E---6--6-6-6-6--6-6-6---------|

e------6-6-6-6--6-6-6---6-6-6----1-1-1-1------------------|
A------6-6-6-6--6-7-7--8-8---8---1-1-1-1------------------|
D------7-7-7-7--6-7-7------------2-2-2-2------------------|
G------8-8-8-8--6-7-7------------3-3-3-3------------------| 
A------8-8-8-8--6-6-6------------3-3-3-3------------------|
E---6--6-6-6-6--6-6-6----------1-1-1-1-1-11-22-33-44-55-6-|
Tap to rate this tab
 
# A B C D E F G H I J K L M N O P Q R S T U V W X Y Z