Song name
# A B C D E F G H I J K L M N O P Q R S T U V W X Y Z

Strange Boys - Be Brave tab

-------------------------------------------------------------------------------
                             BE BRAVE - The Strange Boys
-------------------------------------------------------------------------------
Tabbed by: H.W Floyd
E-mail:

Tuning:Standard
Intro
e|-----6-----6--6~--6--6-6-9--|x2
B|-----6-----6--6h8-8-8-8-----|
G|-----7-----7--6h8-8---------|
D|-----8-----8--6h8-8---------|
A|-----8-----8--6~--6---------|
E|--6--6--6--6--6~--6---------|     

                Try it with or without the pull off
e|-----6-----6--6~--6--6-6-------------1-1-----1-1-------------|
B|-----6-----6--6h8-8-8-8-8/6p0--------1-1-----1-1-------------|
G|-----7-----7--6h8-8------------------2-2-----2-2-------------|
D|-----8-----8--6h8-8------------------3-3-----3-3-------------|
A|-----8-----8--6~--6------------------3-3-----3-3-------------|
E|--6--6--6--6--6~--6---------------1--1-1--1--1-1--1-2-3-4-5-6|
                                                try an up strum pluck
Verse/Chorus
e|----6-6----6-6--6---6--6-6--|x2
B|----6-6----6-6--6h8-8-8-8-9-|
G|----7-7----7-7--6h8-8-------|
D|----8-8----8-8--6h8-8-------|
A|----8-8----8-8--6---6-------|
E|--6-6-6--6-6-6--6---6-------|


e|----6-6----6-6--6---6--6-6---------1-1-----1-1-------------|
B|----6-6----6-6--6h8-8-8-8-8/6p0----1-1-----1-1-------------|
G|----7-7----7-7--6h8-8--------------2-2-----2-2-------------|
D|----8-8----8-8--6h8-8--------------3-3-----3-3-------------|
A|----8-8----8-8--6---6--------------3-3-----3-3-------------|
E|--6-6-6--6-6-6--6---6-----------1--1-1--1--1-1--1-2-3-4-5-6|


e|----6-6----6-6--6---6--6-6--|x2
B|----6-6----6-6--6h8-8-8-8-9-|
G|----7-7----7-7--6h8-8-------|
D|----8-8----8-8--6h8-8-------|
A|----8-8----8-8--6---6-------|
E|--6-6-6--6-6-6--6---6-------|


e|----6-6----6-6--6---6--6-6---------1-1-----1-1-------------|
B|----6-6----6-6--6h8-8-8-8-8/6p0----1-1-----1-1-------------|
G|----7-7----7-7--6h8-8--------------2-2-----2-2-------------|
D|----8-8----8-8--6h8-8--------------3-3-----3-3-------------|
A|----8-8----8-8--6---6--------------3-3-----3-3-------------|
E|--6-6-6--6-6-6--6---6-----------1--1-1--1--1-1--1-2-3-4-5-6|

Sax Solo
e|---66---66---66-|-1-2-3-|x3  F to G. I wasn't able to pick it up but
B|---66---66---66-|-1-2-3-|    I think it's right. 
G|---77---77---77-|-2-3-4-|
D|---88---88---88-|-3-4-5-|
A|---88---88---88-|-3-4-5-|
E|-6-66-6-66-6-66-|-1-2-3-|

e|----1-1-----1-1-------------|
B|----1-1-----1-1-------------|
G|----2-2-----2-2-------------|
D|----3-3-----3-3-------------|
A|----3-3-----3-3-------------|
E|-1--1-1--1--1-1--1-2-3-4-5-6|

Chorus
e|----6-6----6-6--6---6--6-6--|x2
B|----6-6----6-6--6h8-8-8-8-9-|
G|----7-7----7-7--6h8-8-------|
D|----8-8----8-8--6h8-8-------|
A|----8-8----8-8--6---6-------|
E|--6-6-6--6-6-6--6---6-------|


e|----6-6----6-6--6---6--6-6---------1-1-----1-1-------------|
B|----6-6----6-6--6h8-8-8-8-8/6p0----1-1-----1-1-------------|
G|----7-7----7-7--6h8-8--------------2-2-----2-2-------------|
D|----8-8----8-8--6h8-8--------------3-3-----3-3-------------|
A|----8-8----8-8--6---6--------------3-3-----3-3-------------|
E|--6-6-6--6-6-6--6---6-----------1--1-1--1--1-1--1-2-3-4-5-6|


Sax Solo-2 
e|---66---66---66-|-1-2-3-|x3
B|---66---66---66-|-1-2-3-|
G|---77---77---77-|-2-3-4-|
D|---88---88---88-|-3-4-5-|
A|---88---88---88-|-3-4-5-|
E|-6-66-6-66-6-66-|-1-2-3-|

e|----1-1-----1-1-------------|
B|----1-1-----1-1-------------|
G|----2-2-----2-2-------------|
D|----3-3-----3-3-------------|
A|----3-3-----3-3-------------|
E|-1--1-1--1--1-1--1-2-3-4-5-6|

Chorus
e|----6-6----6-6--6---6--6-6--|x2
B|----6-6----6-6--6h8-8-8-8-9-|
G|----7-7----7-7--6h8-8-------|
D|----8-8----8-8--6h8-8-------|
A|----8-8----8-8--6---6-------|
E|--6-6-6--6-6-6--6---6-------|


e|----6-6----6-6--6---6--6-6---------1-1-----1-1-------------|
B|----6-6----6-6--6h8-8-8-8-8/6p0----1-1-----1-1-------------|
G|----7-7----7-7--6h8-8--------------2-2-----2-2-------------|
D|----8-8----8-8--6h8-8--------------3-3-----3-3-------------|
A|----8-8----8-8--6---6--------------3-3-----3-3-------------|
E|--6-6-6--6-6-6--6---6-----------1--1-1--1--1-1--1-2-3-4-5-6|


e|----6-6----6-6--6---6--6-6--|x2
B|----6-6----6-6--6h8-8-8-8-9-|
G|----7-7----7-7--6h8-8-------|
D|----8-8----8-8--6h8-8-------|
A|----8-8----8-8--6---6-------|
E|--6-6-6--6-6-6--6---6-------|


e|----6-6----6-6--6---6--6-6---------1-1-----1-1-------------|
B|----6-6----6-6--6h8-8-8-8-8/6p0----1-1-----1-1-------------|
G|----7-7----7-7--6h8-8--------------2-2-----2-2-------------|
D|----8-8----8-8--6h8-8--------------3-3-----3-3-------------|
A|----8-8----8-8--6---6--------------3-3-----3-3-------------|
E|--6-6-6--6-6-6--6---6-----------1--1-1--1--1-1--1-2-3-4-5-6|

Chorus/ Outro
e|----6-6----6-6--6---6--6-6--|x2
B|----6-6----6-6--6h8-8-8-8-9-|
G|----7-7----7-7--6h8-8-------|
D|----8-8----8-8--6h8-8-------|
A|----8-8----8-8--6---6-------|
E|--6-6-6--6-6-6--6---6-------|

                                                              let it ring
e|----6-6----6-6--6---6--6-6---------1-1-----1-1-------------|-6~-|
B|----6-6----6-6--6h8-8-8-8-8/6p0----1-1-----1-1-------------|-6~-|
G|----7-7----7-7--6h8-8--------------2-2-----2-2-------------|-7~-|
D|----8-8----8-8--6h8-8--------------3-3-----3-3-------------|----|
A|----8-8----8-8--6---6--------------3-3-----3-3-------------|----|
E|--6-6-6--6-6-6--6---6-----------1--1-1--1--1-1--1-2-3-4-5-6|----|

Fade.
Tap to rate this tab
# A B C D E F G H I J K L M N O P Q R S T U V W X Y Z