Song name
# A B C D E F G H I J K L M N O P Q R S T U V W X Y Z

Strange Fruit - All Over The World tab

From the great film "Still Crazy"

Intro:
E------------------------|
B-5----------------------|
G-8b9~~~~--9---7---6---7-|
D----------9---7---6---7-|
A----------7---5---4---5-|
E------------------------|

Verse:
E----------------------------------------------------------|
B----------------------------------------------------------|
G-----------2----4----2----4-4-4-4---------2-2-2-2---------|
D-----------2----4----2----4-4-4-4-4-4-4-4-2-2-2-2-2-2-2-2-|
A-----------0----2----0----2-2-2-2-4-4-4-4-0-0-0-0-2-2-2-2-|
E----------------------------------2-2-2-2---------0-0-0-0-|

E---------------------------------|
B---------------------------------|
G-4-4-4-4---------2-2-2-2---------|
D-4-4-4-4-4-4-4-4-2-2-2-2-2-2-2-2-|
A-2-2-2-2-4-4-4-4-0-0-0-0-2-2-2-2-|
E---------2-2-2-2---------0-0-0-0-|

Pre-chorus:
E-------------------------------------------------|
B-------------------------------------------------|
G-------------------------------------2-----------|
D-6---4-2---4-6---4-2---4-6---4-2-----2-----4-----|
A-6---4-2---4-6---4-2---4-6---4-2-----0-----4-----|
E-4---2-0---2-4---2-0---2-4---2-0-----------2-----|

Chorus:
E---------------------------------|
B---------------------------------|
G-4---------------2---------------|
D-4-------4-------2-------2-------|x4
A-2-------4-------0-------2-------|
E---------2---------------0-------|


Bridge:
E--------------------------------------|
B-5-------8---------12--------14-------|
G-8b9~~~--11b12~~~--15b16~~~--17b18~~~-|
D--------------------------------------|
A--------------------------------------|
E--------------------------------------|

Solo:
E-12-14p12--14p12--14p12--14p12--14p12--14p12--14p12--14p12--|
B---------12-----12-----12-----12-----12-----12-----12----12-|
G------------------------------------------------------------|
D------------------------------------------------------------|
A------------------------------------------------------------|
E------------------------------------------------------------|

E-12p9-12p9-12p9-12p9-12p9-12p9-12p9-12p9--|
B-----9----9----9----9----9----9----9----9-|
G------------------------------------------|x2
D------------------------------------------|
A------------------------------------------|
E------------------------------------------|

Fill 1:
E-/12~~\
B-/12~~\
G-------|
D-------|
A-------|
E-------|

Bridge 2:
E----------------------------------------------|
B-12-------------------------------------------|
G-15b16~~~-----4-4-4-4---------2-2-2-2---------|
D--------------4-4-4-4-4-4-4-4-2-2-2-2-2-2-2-2-|
A--------------2-2-2-2-4-4-4-4-0-0-0-0-2-2-2-2-|
E----------------------2-2-2-2---------0-0-0-0-|

Ending:
E-----------------------------19b20r19b20~~--19~~-------------|
B-15------------17--------------------------------17~~-19~~---|
G-18b19r18b19~~-20b21r20b21~~-------------------------------4-|
D-----------------------------------------------------------4-|
A-----------------------------------------------------------2-|
E-------------------------------------------------------------|

Order:
Intro
Verse
Pre-chorus
Chorus
Verse w/Fill 1
Chorus
Solo
Bridge 2
Pre-chorus
Chorus
Ending
Tap to rate this tab
# A B C D E F G H I J K L M N O P Q R S T U V W X Y Z