Stranger - Skankin In The Dark tab

e|----------------------------------------------------|
B|----------------------------------------------------|
G|-7b9-7b9~---7b9r7-5-7-5-4-5-4h5p4--------4-5-5/7-77-|
D|----------------------------------7-6-7-------------|
A|----------------------------------------------------|
E|----------------------------------------------------|

e|---------------------------------------------------|
B|---------------------------------------------------|
G|-7/9-9h10p9-7-9h10p9-7-9h10p9-7-9h10p9-7-9h10p9-7--|
D|---------------------------------------------------|
A|---------------------------------------------------|
E|---------------------------------------------------|

e|---------------------------------------------------|
B|------------------------------13--13/15------------|
G|9h10p9-7-10-10/12--10-12-12/14--14-----------------|
D|---------------------------------------------------|
A|---------------------------------------------------|
E|---------------------------------------------------|

e|----------------------------------------15--------------|
B|13-15-15b17-15b17~--15b17r15-17-17-15b17--r15-15-15-13--|
G|--------------------------------------------------------|
D|--------------------------------------------------------|
A|--------------------------------------------------------|
E|--------------------------------------------------------|

e|15-12-15-15/17-171717-17-|
B|-------------------------|
G|-------------------------|
D|-------------------------|
A|-------------------------|
E|-------------------------|

e|---------15---------------15--------------15--------|
B|15-16-17---17-16-15-16-17---17-16-15-16-17---17-16--|
G|----------------------------------------------------|
D|----------------------------------------------------|
A|----------------------------------------------------|
E|----------------------------------------------------|

e|---------15-17-17-17/20-17-17~-----------------|
B|15-16-17---------------------------------------|
G|-----------------------------------------------|
D|-----------------------------------------------|
A|-----------------------------------------------|
E|-----------------------------------------------|

e|17-15--15b17--17-15----------------------------|
B|-----17------------17-15b17--------------------|
G|-----------------------------------------------|
D|-----------------------------------------------|
A|-----------------------------------------------|
E|-----------------------------------------------|

e|15----------------------------------------------|
B|--1716171615-13h15p13--13--15-15h17p15p13-15-13-|
G|---------------------14--14---------------------|
D|------------------------------------------------|
A|------------------------------------------------|
E|------------------------------------------------|

e|-----12-15------12-15------12-15------12-15------12-15---|
B|15b17------15b17------15b17------15b17------15b17--------|
G|---------------------------------------------------------|
D|---------------------------------------------------------|
A|---------------------------------------------------------|
E|---------------------------------------------------------|

e|-----12--201917-201917-201917-201917-201917--|
B|15b17----------------------------------------|
G|---------------------------------------------|
D|---------------------------------------------|
A|---------------------------------------------|
E|---------------------------------------------|

e|20p17-19p17-15h17---| x20
B|--------------------|
G|--------------------|
D|--------------------|
A|--------------------|
E|--------------------|

e|20b22~--(slowly release bend and pick)-------|
B|---------------------------------------------|
G|---------------------------------------------|
D|---------------------------------------------|
A|---------------------------------------------|
E|---------------------------------------------|

e|20p19-19-17h19p17-15--15b17\-----------------|
B|--------------------17-----------------------|
G|---------------------------------------------|
D|---------------------------------------------|
A|---------------------------------------------|
E|---------------------------------------------|

e|15-12p10-------------------------------------|
B|--------13p12-13p12\10h12/15p13-12-13-12-----|
G|----------------------------------------12\9-|
D|---------------------------------------------|
A|---------------------------------------------|
E|---------------------------------------------|

e|---------------------------------------------|
B|---------------------------10-vvvvvvvvvv-----|
G|7p5--5~--------------------------------------|
D|----7----7-5-5-5-5/7~-vvvvv------------------|
A|---------------------------------------------|
E|---------------------------------------------|
Tap to rate this tab
 
# A B C D E F G H I J K L M N O P Q R S T U V W X Y Z