Song name
# A B C D E F G H I J K L M N O P Q R S T U V W X Y Z

Strangers With Candy - My Room tab

Help us improve GuitareTab! Take a short survey!
h = hit
p = pull
/ = slide
P.M. = Palm

Tuning : Drop D

Intro :

E ------------------------------------------------|
B ------------------------------------------------|
G ------------------------------------------------|
D ------------------------------------------------|
A ----0h2--0h2----3p2---0---0-0--0---3/5----5h7---|   (Play 4x)
D ------------------------------------------------|

E ------------------------------------------------|
B ------------------------------------------------|
G ------------------------------------------------|
D ------------------------------------------------|
A ----0h2--0h2----3p2---0---0-0--0---3/5----5h7---|   (Play 4x)
D ----0h2--0h2----3p2---0---0-0--0---3/5----5h7---|

E ------------------------------------------------|
B ------------------------------------------------|
G ------------------------------------------------|
D ------------------------------------------------|
A ----0h2--0h2----3p2---0---0-0--0---3/5----5h7---|
D ------------------------------------------------|
      ***************** P.M.*******************

TA/ Chris M., Sammy
Related for My Room tab