Song name
# A B C D E F G H I J K L M N O P Q R S T U V W X Y Z

Stranglers - Golden Brown tab

i was having some issues getting this song to sound the same as the one they recorded 
is most commonly known.

in fact the guitar should be tunded one whole step down.

the tuning would be

DGCFAD

heres a good site: http://www.get-tuned.com/guitar_tuner.php

{ Intro }

    Am          Em        F             C
-----0-----0-0-----0-0-----1-----1-1-----0---0---0---0--|--|
-----1-----1-1-----0-0-----1-----1-1-----1---1---1---1--|--|
-----2-----2-2-----0-0-----2-----2-2-----0---0---0---0--|--|
---------------------------------------2---0---3---2----|--|
---0-----0----------------------------------------------|--|
---------------0---------1-----1------------------------|--|

 Do it 3 times, and then

    Am          Em        G             F
-----0-----0-0-----0-0-----3-----3-3-----1---1---1---1--|--|
-----1-----1-1-----0-0-----0-----0-0-----1---1---1---1--|--|
-----2-----2-2-----0-0-----0-----0-0-----2---0---0---0--|--|
---------------------------------------3---2---0---3----|--|
---0-----0----------------------------------------------|--|
---------------0---------3-----3------------------------|--|

    Dm            C6          Dm              C6
-----1-----1-1-------0---0--|----1-----1-1-------0---0--|--|
-----3-----3-3-------1---1--|----3-----3-3-------1---1--|--|
-----2-----2-2-------2---2--|----2-----2-2-------2---2--|--|
---0-----0-------2-------3--|--0-----0-------2-------3--|--|
----------------------------|---------------------------|--|
----------------------------|---------------------------|--|

{ The rest of the song should be played using similar rhythm }


Dm      C6     Dm           C6
Golden Brown, texture like sun
Dm       C6    Dm           C6
Lays me down, with my mind she runs
Dm              C6    Dm          C6
Throughout the night, no need to fight
Dm       C6    Dm          C6
Never a frown with Golden Brown


Dm  C6   Dm  C6


Every time, just like the last
On the ship tied to the mast
To distant lands, takes both my hands
Never a frown with Golden Brown


Am  Em  F  G6     Am  Em  F  G6     Am  Em  F  G6     Am  Em  G  F
Dm  C6   Dm  C6


Golden Brown, fine a temptress
Through the ages she's heading west
>From far away, stays for a day
Never a frown with Golden Brown


Am  Em  F  G6     Am  Em  F  G6     Am  Em  F  G6     Am  Em  G  F
Dm  C6   Dm  C6


{ Solo }

-------------------|-----------------|-----------------|-----------------|--|
-------------------|-----------------|-----------------|-----------------|--|
---10-9-10-9-10-9--|-10-9-10-9-10-9--|-10-9-10-9-10-9--|-10-9-10-9-10-9--|--|
-------------------|-----------------|-----------------|-----------------|--|
-------------------|-----------------|-----------------|-----------------|--|
-------------------|-----------------|-----------------|-----------------|--|


-------------------|-----------------|----------------------|--|
-------------------|-----------------|----------------------|--|
---10-9-10-9-10-9--|-10-9-10-9-10-9--|-10-9-10-9-10/12~~~~--|--|
-------------------|-----------------|----------------------|--|
-------------------|-----------------|----------------------|--|
-------------------|-----------------|----------------------|--|

-------------------|-------------------|---------|--|
-------------------|-------------------|---------|--|
---10-9-10-9-10-9--|-10-9-10-9-10-9-7--|--5------|--|
-------------------|-------------------|----7-5--|--|
-------------------|-------------------|---------|--|
-------------------|-------------------|---------|--|

---10-8--------------|--10-8--------------|--|
---------10-8--------|--------10-8--------|--|
---------------10-9--|--------------10-9--|--|
---------------------|--------------------|--|
---------------------|--------------------|--|
---------------------|--------------------|--|


-----------------|-----------------|---------------|-10-8~~--|--|
-----------------|-10-8------------|---------8-10--|---------|--|
-----------9-10--|------10-9-------|----9-10-------|---------|--|
------9-10-------|-----------10-9--|-10------------|---------|--|
---10------------|-----------------|---------------|---------|--|
-----------------|-----------------|---------------|---------|--|


Dm  C6   Dm  C6  (4x)

Am  Em  F  G6     Am  Em  F  G6     Am  Em  F  G6     Am  Em  G  F
Dm  C6   Dm  C6
Tap to rate this tab
# A B C D E F G H I J K L M N O P Q R S T U V W X Y Z