Song name
# A B C D E F G H I J K L M N O P Q R S T U V W X Y Z

Stranglers - Peaches tab

I hope this is right :)
tuning: standard
please rate


e|----------------------6---------|---------------------------------|
B|----------------------6h7-------|---------------------------------|
G|--------------------------------|---------------------------------|
D|--------------------------------|---------------------------------|
A|--6--------------4--------------|---------------------------------|
E|-----------6--------------------|--6-6--6-----4-----2-------------|

e|----------------------6---------|---------------------------------|
B|----------------------6h7-------|---------------------------------|
G|--------------------------------|---------------------------------|
D|--------------------------------|---------------------------------|
A|--6--------------4--------------|---------------------------------|
E|-----------6--------------------|--6-6--6-----4-----2-------------|


e|----------------------------------|---------------------------------|
B|----------------------------------|---------------------------------|
G|----------------------------------|---------------------------------|
D|----------------------------------|---------------------------------|
A|--6-6-6-6-----4--4----------------|---------------------------------|
E|--------------------------6-------|--6-6--6------4------2-----------|
Tap to rate this tab
# A B C D E F G H I J K L M N O P Q R S T U V W X Y Z