Song name
# A B C D E F G H I J K L M N O P Q R S T U V W X Y Z

Strapping Young Lad - Japan tab

Tuning:  Low to high= CGCGBE

Pickup  Riff A
-----|--------------------------|---------------------------------------|
-----|--------------------------|---------------------------------------|
-----|--------------------------|---------------------------------------|
-----|--------------------------|---------------------------------------|
-----|--0--0--0--0--0--0--0--0--|---------------------------------------|
/12--|--0--0--0--0--0--0--0--0--|---------------------------------------|


Riff B                                 Riff C   Riff C2  Riff C3
------------------------------------|--------|--------|--------|--------|
------------------------------------|--------|--------|--------|--------|
------------------------------------|--------|--------|--------|--------|
------------------------------------|--------|--------|--------|--------|
0--0--x--x--0--0--x--x--x--x--x--x--|--2-----|--3-----|--1-----|--------|
0--0--x--x--0--0--x--x--x--x--x--x--|--2-----|--3-----|--1-----|--------|


Riff D
------------------------------------------|-----------------------------|
------------------------------------------|-----------------------------|
------------------------------------------|-----------------------------|
------------------------------------------|-----------------------------|
------------------------------------------|-----------------------------|
0--0--0--0/12--0--0/12--0/12--12--12--12--|-----------------------------|


Riff E
------------------------------------------------|-----------------------|
------------------------------------------------|-----------------------|
------------------------------------------------|-----------------------|
------------------------------------------------|-----------------------|
3--3--3--3--3--3--3--3--3--3--3--3--3--3--3--3--|-----------------------|
3--3--3--3--3--3--3--3--3--3--3--3--3--3--3--3--|-----------------------|


Riff F                     Riff G
------------------------|---------------------------|-------------------|
------------------------|---------------------------|-------------------|
------------------------|---------------------------|-------------------|
------------------------|---------------------------|-------------------|
------------------------|--0--0--0--/4--4--4--4--4--|-------------------|
0--3--3--0--3--3--3--3--|--0--0--0--04--4--4--4--4--|-------------------|


                           Riff G2
------------------------|---------------------------|-------------------|
------------------------|---------------------------|-------------------|
------------------------|---------------------------|-------------------|
------------------------|--7------------------------|-------------------|
7--7--7--7--7--7--7--7--|--5--0--0--/4--4--4--4--4--|-------------------|
7--7--7--7--7--7--7--7--|-----0--0--04--4--4--4--4--|-------------------|


                           End Riff
------------------------|--------------|--------------------------------|
------------------------|--------------|--------------------------------|
------------------------|--------------|--------------------------------|
------------------------|--------------|--------------------------------|
7--7--7--7--3--3--3--3--|--0--0--0--0--|--------------------------------|
7--7--7--7--3--3--3--3--|--0--0--0--0--|--------------------------------|
Tap to rate this tab
# A B C D E F G H I J K L M N O P Q R S T U V W X Y Z