Song name
# A B C D E F G H I J K L M N O P Q R S T U V W X Y Z

Strapping Young Lad - New Black tab

Help us improve GuitareTab! Take a short survey!
----------------------------------------------------------------------------
			     SONG NAME - Band Name
----------------------------------------------------------------------------
Tabbed by:Nitro joe
Email:perediam@hotmail.co.uk

Tuning:CGCGCe (open c)
For those of us who dont have guitar pro
maybe the odd mistake but in that tuning it sounds quite accurate

opening
e|----------------------------------------------------------------------|
C|----------------------------------------------------------------------|
G|----------------------------------------------------------------------|
C|----------------------------------------------------------------------|X 4
G|----------------------------------------------------------------------|
C|-0-3333--0-3333--0-3333--0-3333-2222222222222222----------------------|

chorus
both guitars
e|----------------------------------------------------------------------|
C|----------------------------------------------------------------------|
G|----------------------------------------------------------------------|
C|--55-44---------------------------------------------------------------|X2
G|--33-22---------------------------------------------------------------|
C|-0-------0-3333--0-3333-2222222222222222------------------------------|

e|----------------------------------------------------------------------|
C|----------------------------------------------------------------------|
G|----------------------------------------------------------------------|
C|--77-66---------------------------------------------------------------|X2
G|--55-44---------------------------------------------------------------|
C|-0-------0-3333--0-3333-2222222222222222------------------------------|

Verse 1
e|--------------------------------------------------------------------|
C|--------------------------------------------------------------------|
G|--------------------------------------------------------------------|
C|--------------------------------------------------------------------| X 4
G|--------------------------------------------------------------------|
C|-0-0000--0-0000--0-0000--0-0000-0000000000000000--------------------|
                                  ^guitar 2 does slide over this bit

verse 2
guitar 1 continues verse one riff
while guitar 2 play this with vocals
e|-------------------------------------------------------------------------|
C|-------------------------------------------------------------------------|
G|-------------------------------------------------------------------------|
C|-------------------------------------------------------------------------|
G|-3-p0-3-p0-2-------------------------------------------------------------|
C|-3-p0-3-p0-2---000000000000000000000000----------------------------------|
                 ^ both guitars

Chorus riff
Verse 1 riff
verse 2 riff
Chorus riff

Bridge
Sleepwalking....
e|------------------------------------------------------------------------|
C|------------------------------------------------------------------------|
G|------------------------------------------------------------------------|
C|-----0-----0-------0----------------------------------------------------|
G|---0---0-----0---0---0----3-0-3-5---------------------------------------|
C|-0-------0-----0-------0--3-0-3-5---------------------------------------|
Not sure how many times you repeat it

Bridge end
e|-------------------------------------------------------------------------|
C|---------------------0---------------------------------------------------|
G|---------------------0---------------------------------------------------|
C|--3----3----3----3---0---------------------------------------------------|
G|--3----3----3----3---0---------------------------------------------------|
C|--3----3----3----3---0---------------------------------------------------|
                        let ring....
Bridge 2
e|-------------------------------------------------------------------------|
C|-------------------------------------------------------------------------|
G|-------------------------------------------------------------------------|
C|-------------------------------------------------------------------------|
G|-0-----------0-------------0-0-------------------------------------------|
C|-0--6-0-5-0--0--6-0-5-0-4--0-0-------------------------------------------|
Thats rough but listen to it youll get the rythm

Ending bit
And all these things.....
e|---------------------------------------------------------------------------|
C|---------------------------------------------------------------------------|
G|---------------------------------------------------------------------------|
C|---------------------------------------------------------------------------|
G|-0----2----0----2----------------------------------------------------------|
C|-0----2----0----2----------------------------------------------------------|
again rough but its a tad hard to make that bit out

ending riff
e|-------------------------------------------------------------------------|
C|-------------------------------------------------------------------------|
G|-------------------------------------------------------------------------|
C|-------------------------------------------------------------------------|
G|-------------------------------------------------------------------------|
C|-0--0--0--0--0--0--0--0--0--0--0--0--0--0--0--0--0--0--0--0--------------|

Yay another tab successfully completed
If anyones got a tab version of aftermath
or any tabs for anal cunt songs drop us a line


| /  slide up
| \  slide down
| h  hammer-on
| p  pull-off
| ~  vibrato
| +  harmonic
| x  Mute note
===============================================================================
Related for New Black tab