Strapping Young Lad - Far Beyond Metal tab

-----------------------------------------------------------------
Far Beyond Metal Solo - Strapping Young Lad
-----------------------------------------------------------------
Tabbed by: DgorillazguyH
Email: almostashuvit@yahoo.com
Tuning: CGCGCE

E|---------------------------------------------------------------|
C|----------------------19-17-15-17-15-14-15-14----14------------|
G|----------------------------------------------17----17-15-17-15|
C|-------12~-----------------------------------------------------|
G|--(0)----------------------------------------------------------|
C|--(0)----------------------------------------------------------|
         w/Bar

E|---------------------------------------------------------------|
C|---------------------------------------------------------------|
G|-13-15-13-12-13-12-10-12~--------------------------------------|
C|---------------------------------------------------------------|
G|---------------------------------------------------------------|
C|---------------------------------------------------------------|

E|---------------------------------------------------------------|
C|--12-12-12-12-12-12-12-12-12-10-10-10-10-10-10----12-12-12-12--|
G|-----------------------------------------------12--------------|
C|---------------------------------------------------------------|
G|---------------------------------------------------------------|
C|---------------------------------------------------------------|

E|--------------------x\-----------------------------------------|
C|-12-12-12-12-12-10--x\---12-12-12-12-12-12-12-12-12-15-15-15-15|
G|--------------------x\-----------------------------------------|
C|---------------------------------------------------------------|
G|---------------------------------------------------------------|
C|---------------------------------------------------------------|

E|---------------------------------------------------------------|
C|-15-15----12-12-12-12-12-12-12-12h14p12-11~--------------------|
G|-------12------------------------------------------------------|
C|---------------------------------------------------------------|
G|---------------------------------------------------------------|
C|---------------------------------------------------------------|

E|---------------------------------------------------------------|
C|--15--15-15-15-14~---------------------------------------------|
G|---------------------12-10-8-10-12~-----10-12-12b14-10~--------|
C|---------------------------------------------------------------|
G|---------------------------------------------------------------|
C|---------------------------------------------------------------|

E|---------------------------------------------------------------|
C|---------------------------------------------------------------|
G|--12b14r12p10-12~----------------------------------------------|
C|---------------------------------------------------------------|
G|----------------------12~--------------------------------------|
C|---------------------------------------------------------------|
                        w/Bar

                                LADIES AND GENTLEMEN: THE MAGGOT MASTER!
E|---------------------------------------------------------------|
C|---------------------------------------------------------------|
G|---------------------------------------------------------------|
C|--0-0--0-0-0-0-------------------------------------------------|
G|--0-0--0-0-0-0-------------------------------------------------|
C|--0-0--0-0-0-0-------------------------------------------------|
    PM..........

That's Pretty Much The Solo, All The Tabs For This Song On This Site Get The Solo Wrong, 
Enjoy!
Tap to rate this tab
 
# A B C D E F G H I J K L M N O P Q R S T U V W X Y Z