Strapping Young Lad - Plyophony tab

#----------------------------------PLEASE NOTE---------------------------------#
#This file is the author's own work and represents their interpretation of the #
#song. You may only use this file for private study, scholarship, or research. #
#------------------------------------------------------------------------------#



This is my second tab, but for some reason UG didn't approve the 1st one even though
it was 100% correct(different song). Anyways, this one might not be 100% correct, but it 
sounds pretty damn close. The only part I'm not sure about is the middle tab bar after 3 2 0.
 Everything else should be spot on.



	




  Gtr I
  PM-------------------|
|----------------------------------------------------------|
|----------------------------------------------------------|
|----------------------------------------------------------|
|---------------------------10-10-10-10-----10-10-10-10----|
|-------------------------8---------------8----------------|
|-0--0-0-0-0--0--0-0-0-0-----------------------------------|


          PM--|                                   PM--|
|----------------------------------------------------------|
|----------------------------------------------------------|
|----------------------------------------------------------|
|-10-9-----------10-10-10h12-12-9-9-10p9-10p9--------------|
|------8--------------------------------------10-----------|
|---------3-2-0-----------------------------------3-2-0----|


  PM--------------------|     PM--------------------|
|--------------------------------------------------------|
|--------------------------------------------------------|
|--------------------------------------------------------|
|-------------------------0------------------------------|
|-------------------------0------------------------------|
|-5-5-5-5-5-5-5-5-5-5-3-2-0---5-5-5-5-5-5-5-5-5-5-6-6----|



Tablature Legend
----------------
 h   - hammer-on
 p   - pull-off
 b   - bend
 pb  - pre-bend
 r   - bend release (if no number after the r, then release immediately)
 /\  - slide into or out of (from/to "nowhere")
 s   - legato slide
 S   - shift slide
 - natural harmonic
[n]  - artificial harmonic
n(n) - tapped harmonic
 ~   - vibrato
 tr  - trill
 T   - tap
 TP  - trem. picking
 PM  - palm muting
\n/  - tremolo bar dip; n = amount to dip
 \n  - tremolo bar down
 n/  - tremolo bar up
/n\  - tremolo bar inverted dip
 =   - hold bend; also acts as connecting device for hammers/pulls
 <> - volume swell (louder/softer)
 x   - on rhythm slash represents muted slash
 o   - on rhythm slash represents single note slash

Tap to rate this tab
 
# A B C D E F G H I J K L M N O P Q R S T U V W X Y Z