Song name
# A B C D E F G H I J K L M N O P Q R S T U V W X Y Z

Strapping Young Lad - Satans Ice Cream Truck tab

This is my first tab, its not perfect but its close and goes something like this 

e-|-----------------------------------------------|
B-|-----------------------------------------------|
G-|----8--11-10-11-10--8--11-10---8-11-10-11-10-8-|
D-|-----------------------------8-----------------| 
A-|-----------------------------------------------|
E-|-----------------------------------------------|



e-|------------------------------------------------|
B-|------------------------------------------------|
G-|----11--15-13-15-13--11--15-13---11-15-13-15-13-|
D-|-------------------------------11---------------|
A-|------------------------------------------------|
E-|------------------------------------------------|

e-|-----------------------------------------------|
B-|-----------------------------------------------|
G-|----8--11-10-11-10--8--11-10---8-11-10-11-10-8-|
D-|-----------------------------8-----------------| 
A-|-----------------------------------------------|
E-|-----------------------------------------------|

e-|-------------------------------------------------|
B-|-------------------------------------------------|
G-|----11--15-13-15-13--11--15-13---11-15-13-15-13~-|
D-|-------------------------------11----------------|
A-|-------------------------------------------------|
E-|-------------------------------------------------|


have fun
Tap to rate this tab
 
# A B C D E F G H I J K L M N O P Q R S T U V W X Y Z