Guitaretab - guitar tabs
Song name
# A B C D E F G H I J K L M N O P Q R S T U V W X Y Z

Strata - Poughkeepsie Ny tab

strata 
 

the whole song is played in light distortion & echo

intro

   |-----------------------0-------|
   |------------4444444----x-------|
   |-----------------------4-------|
   |-----------------------5-------|
   |-----------------------5-------|
   |-----------------------3-------|

  intro bass
  
   |---------|
   |---9-----|
   |---7-----|
   |---------|
   |---------|
   |---------|
  verse 
   i met the devil in....  

   he took a sit... at the end of the bar
   |-------------------------------|
   |---------------9----7-----5----|
   |-------------------------------|
   |-------------------------------|
   |-------------------------------|
   |-------------------------------|
   he said i looked...
   ....i drank with the devil in P NY 
   |---------------------------------------------------------|
   |----9--7--5--7--5--4--5--2--7--5--4--5-------------------|
   |---------------------------------------222222222-111111--|
   |---------------------------------------------------------|
   |---------------------------------------------------------|
   |---------------------------------------------------------|

   verse 2  

   and i confessed i hadn't....  before it's too late...for you at the gates
  
   |-----------------------------------------|
   |-------17----9-7-5---------------9-7-5---|
   |--1b---14---------heavy9999999999--------|
   |-----------------------------------------|
   |-----------------------------------------|
   |-----------------------------------------|
[ Tab from: http://www.guitaretab.com/s/strata/182863.html ]
   chorus 
   hallelujah! o'
   hallelujah! o'
  
   |--------0-----------------------|
   |-7-5-4-5x7-5-4-5-2-7-5-4-5------|
   |--------4-------------------2---|
   |--------5-----------------------|
   |--------5-----------------------|
   |--------3-----------------------|

   |--------------------------------|
   |---5-7--7-5-9-7-5-7-12~---------|
   |------9----9--------------------|   x 4
   |--------------------------------|
   |--------------------------------|
   |--------------------------------|

   bridge

   |-------------------|
   |-------------------|
   |-------------------| x 2
   |----2----2--2------|
   |--2---2-------2----|
   |-------------------|


  verse 3

  he said " just say  the word ....
   ...i said " well now i know  who my real....
   and made my way from the door

   |-------------------------------------------------------|
   |------12-10-9-7-9-----9-7-9----12-10-9-7-9-----9-7/15--|
   |--9-9-------------9-9-------9-9------------9-9---------|
   |-------------------------------------------------------|
   |-------------------------------------------------------|
   |-------------------------------------------------------|

  chorus
   hallelujah!'o' o'
   hallelujah!'o' o'
   
   end of the song (with some kind of wah-ah effect on 2snd sound)
   |----------------------------------|
   |-----9-7-5-4b-9-7-5-4b-9-7-5-4b---|
   |----------------------------------|
   |----------------------------------|
   |----------------------------------|
   |----------------------------------|

   this one's my first tab, hope is good enough for you
   to learn how to play this great song the good way, i did my best
  

Related for Poughkeepsie Ny tab