Song name
# A B C D E F G H I J K L M N O P Q R S T U V W X Y Z

Strata - Coma Therapy Acoustic tab

-------------------------------------------------------------------------------
                            Coma Therapy (Acoustic) - Strata
-------------------------------------------------------------------------------
Tabbed by: newly_archaic
Email:
Tuning: Half-Step Down (Low - High: Eb-Ab-Db-Gb-Bb-Eb)

Song can be heard here: http://www.youtube.com/watch?v=8p4n_9hOt3I
 
Watch the video for strumming patterns and chord variations 


Verse Chords:

Am         Am7           Dm7  Dm7*
|---0-------3---------5----5-----|
|---1-------1---------6----5-----|
|---2-------2---------5----5-----|
|---2-------2---------0----0-----|
|---0-------0--------------------|
|--------------------------------|



Chorus Chords:

Cmaj       Fmaj7         G#maj
|---0-------0-----------4-------|
|---1-------1-----------4-------|
|---0-------2-----------5-------|
|---2-------3-----------6-------|
|---3-------3-----------6-------|
|---3---------------------------|


Last Chorus Chords:

Cmaj     Fmaj7    G#maj    Gmaj   E
|----0------0-------4------3-----0----------------|
|----1------1-------4------3-----0----------------|
|----0------2-------5------4-----1----------------|
|----2------3-------6------5-----2----------------|
|----3------3-------6------5-----2----------------|
|----3---------------------------0----------------|


* : Inversion of Dm7


Intro: Am-Am7-Am-Am7-Dm7-Dm7*-Dm7-Dm7* 

(Verse)
I felt you come to life on my fingertips. 
I mixed your blood with mine, wanted to feel like this forever. 


(Chorus)
I've got nothing left to lose but my memories of you 
and there's no better cure for me than this coma therapy. 

(Verse)
You whispered in my ear like a bomb going off. 
What the Hell are we doing here? 
Is this all we've got? 


(Chorus + Last Chorus)
I've got nothing left to lose but my memories of you 
and there's no better cure for me than this coma therapy, 
so let me drift away...




************************************

| /   slide up
| \   slide down
| h   hammer-on
| p   pull-off
| ~   vibrato
| +   harmonic
| x   Mute note
| b   Bend
| pb  Pre-bend
| br  Bend release
| pbr Pre-bend release
| brb Bend release bend

************************************
Tap to rate this tab
# A B C D E F G H I J K L M N O P Q R S T U V W X Y Z