Song name
# A B C D E F G H I J K L M N O P Q R S T U V W X Y Z

Strata - I Will Breathe Fire tab

Artist: Strata
Album: Strata
Song: I Will Breathe Fire
Tabber: supreemo

Tuning: Drop-D down 1/2 step

Intro: clean
Eb|--------------------------------xxx---|
Bb|--------------------------------xxx---|
Gb|-----------------10101010101010-xxx---|
Db|-10101010101010---8-8-8-8-8-8-8-xxx-0-|
Ab|--8-8-8-8-8-8-8---8-8-8-8-8-8-8-xxx-0-|
Db|--8-8-8-8-8-8-8---8-8-8-8-8-8-8-xxx-0-|

Chorus:
Eb|---------------------------------------|
Bb|---------------------------------------|
Gb|-1111111111111111-1212-----------------|
Db|--x-x-x-x-x-x-x-x--x-x--10101010101010-|
Ab|--9-9-9-9-9-9-9-9-1010---8-8-8-8-8-8-8-|
Db|--0-0-0-0-0-0-0-0--0-0---8-8-8-8-8-8-8-|

Pre-Verse:
Eb|-------------------------xx---|
Bb|-------------------------xx---|
Gb|-101010-999-101010-999---xx---|
Db|--x-x-x-xxx--x-x-x-xxx-0-xx-0-|
Ab|--8-8-8-777--8-8-8-777-0-xx-0-|
Db|-----------------------0-xx-0-|

Verse: clean
Eb|-----------------------------------|
Bb|-----------------------------------|
Gb|-7-7-7-7-7-7-7--9-9--6-6-6-6-6-6-6-|
Db|-x-x-x-x-x-x-x--x-x--x-x-x-x-x-x-x-|
Ab|-5-5-5-5-5-5-5--7-7--4-4-4-4-4-4-4-|
Db|-----------------------------------|
 
Intro to verse 2:
Eb|----------------------------|
Bb|----------------------------|
Gb|-7----9-6----7----9-11---6b-|
Db|----------------------------|
Ab|----------------------------|
Db|----------------------------|
 
Bridge:
Eb|-------------------------|
Bb|-------------------------|
Gb|-------------------------|
Db|-10101010-9999-8888-7777-|
Ab|-10101010-9999-8888-7777-|
Db|-10101010-9999-8888-7777-|

Final Chorus:
Eb|-----------------------------------------|
Bb|-----------------------------------------|
Gb|-1111111111111111-1212-14141414-12121212-|
Db|--x-x-x-x-x-x-x-x--x-x--x-x-x-x--x-x-x-x-|
Ab|--9-9-9-9-9-9-9-9-1010-12121212-10101010-|
Db|--0-0-0-0-0-0-0-0--0-0-------------------|

Eb|---------------------------------------|
Bb|---------------------------------------|
Gb|-151515-141414-121212-141414-1212-1414-|
Db|--x-x-x--x-x-x--x-x-x--x-x-x--x-x--x-x-|
Ab|-131313-121212-101010-121212-1010-1212-|
Db|---------------------------------------|

Eb|-----------------------------------------|
Bb|-----------------------------------------|
Gb|-1111111111111111-1212-14141414-12121212-|
Db|--x-x-x-x-x-x-x-x--x-x--x-x-x-x--x-x-x-x-|
Ab|--9-9-9-9-9-9-9-9-1010-12121212-10101010-|
Db|--0-0-0-0-0-0-0-0--0-0-------------------|

Eb|--------------------------------|
Bb|--------------------------------|
Gb|-151515-141414-1717171717171717-|
Db|--x-x-x--x-x-x--x-x-x-x-x-x-x-x-|
Ab|-131313-121212-1515151515151515-|
Db|--------------------------------|
Tap to rate this tab
# A B C D E F G H I J K L M N O P Q R S T U V W X Y Z