Song name
# A B C D E F G H I J K L M N O P Q R S T U V W X Y Z

Stratovarius - Legions tab

#----------------------------------PLEASE NOTE---------------------------------#
#This file is the author's own work and represents their interpretation of the #
#song. You may only use this file for private study, scholarship, or research. #
#------------------------------------------------------------------------------#

LEGIONS
As recorded by Stratovarius
(From the 1998 Album VISIONS)


Transcribed by an unregistered user
	

Words and Music by Timo Tolkki

Gtr I (D# G# C# F# A# D#) - 'Timo Tolkki'
Gtr II (D# G# C# F# A# D#) - 'Timo Tolkki (Solo & Fills'
Gtr III (A# D# G# C# F# A# D#) - 'Jens Johannson (Harpsichord)'
Gtr IV (A# D# G# C# F# A# D#) - 'Jens Johannson (Solo Keyboards)'
Gtr V (D# G# C# F# A# D#) - 'Jens Johannson (Choir)'

   Intro
    Q=155
    F#m
   4/4
    Gtr I
    PM----|   PM----|   PM----|     PM----|   PM----|
    S S S S E S S S S E S S S S   E S S S S E S S S S S S S S
||------------------------------|-----------------------------|
||o-----------------------------|-----------------------------|
||------------------------------|-----------------------------|
||----------4-------------------|-----------------------------|
||o-------------------4---------|-5---------2---------4s5s4p2-|
||--2-2-2-2---2-2-2-2---2-2-2-2-|---2-2-2-2---2-2-2-2---------|


                              D                F#m
          PM----|   PM----|            PM| ~~~~~~~~PM|   PM----|   PM----|
  E S S E S S S S E S S S S   Q.   E E E E E   +E  S S E S S S S E S S S S
|---------------------------|----------------|-----------------------------|
|---------------------------|----------------|-----------------------------|
|---------------------------|-7--------------|-----------------------------|
|-------4-------------------|-7----7-6-------|---------4-------------------|
|-4---------------4---------|-5--------7-5-4-|-(4)---------------4---------|
|---2-2---2-2-2-2---2-2-2-2-|----------------|-----2-2---2-2-2-2---2-2-2-2-|


                                                           1.
                                                            D        E
    PM----|   PM----|             PM|   PM----|   PM----|
  E S S S S E S S S S S S S S   E S S E S S S S E S S S S   Q.   E E E Q
|-----------------------------|---------------------------|-----------------||
|-----------------------------|---------------------------|----------------o||
|-----------------------------|---------------------------|-----------------||
|-----------------------------|-------4-------------------|-7----6-7s9-9----||
|-5---------2---------4s5s4p2-|-4---------------4---------|-5----5-5s7-7---o||
|---2-2-2-2---2-2-2-2---------|---2-2---2-2-2-2---2-2-2-2-|-----------------||


  2.
  D          Db5
                                                   |------6-------|
  W           Q            E     S  S  S  S  S  S  S  S  S  S  S  S
|----------|------------------------------9-10-12----------10-12-14-|
|----------|---------------------9-10-12----------10-12-14----------|
|-7--------|--7\----------------------------------------------------|
|-7--------|--6\----------------------------------------------------|
|-5--------|--5\----------------------------------------------------|
|----------|--------------------------------------------------------|
|
| Gtr III
|                                                  |------6-------|
| W           S   S  S  S  S  S  S  S  S  S  S  S  S  S  S  S  S  S
|----------|--------------------------------------------------------|
|----------|-----------12-14-15----------14-15-17----------15-17-19-|
|----------|-11--13-14----------13-14-16----------14-16-18----------|
|----------|--------------------------------------------------------|
|----------|--------------------------------------------------------|
|----------|--------------------------------------------------------|
|----------|--------------------------------------------------------|


   |------6-------|  |------6-------|
   S  S  S  S  S  S  S  S  S  S  S  S  q  Q
|----------12-14-16----------14-16-17-19-------||
|-12-14-15----------14-15-17-------------------||
|----------------------------------------------||
|----------------------------------------------||
|----------------------------------------------||
|----------------------------------------------||
|
|  |------6-------|  |------6-------|
|  S  S  S  S  S  S  S  S  S  S  S  S  q  Q
|-------------------------------------19-------||
|----------17-19-21----------19-21-22----------||
|-16-18-19----------18-19-21-------------------||
|----------------------------------------------||
|----------------------------------------------||
|----------------------------------------------||
|----------------------------------------------||


   Verse
    F#m        E          F#m        D
    Gtr I
                                                   PM---|
    W          W          W           Q   E  E  E  E  E  E
||-----------|----------|----------|-----------------------|
||o----------|----------|----------|-----------------------|
||-----------|----------|----------|--7---9--7--6----------|
||--4--------|-2--------|-4--------|--7---9--7--6----------|
||o-4--------|-2--------|-4--------|-----------------------|
||--2--------|-0--------|-2--------|---------------7--5--4-|
|
|   Gtr II
|   W          W          W           Q   E  E  E  E  E  E
||-----------|----------|----------|-10--12-10--9----------|
||o----------|----------|----------|-12--14-12-10-12-10--9-|
||-----------|----------|----------|--------------13-11-10-|
||-----------|----------|----------|-----------------------|
||o----------|----------|----------|-----------------------|
||-----------|----------|----------|-----------------------|


  F#m         E             F#m           D
  Gtr I
                                                        PM---|
   W            W             W            Q   E  E  E  E  E E
|-----------|-------------|-------------|-----------------------||
|-----------|-------------|-------------|-----------------------||
|-----------|-------------|-------------|--7---9--7--6----------||
|--4--------|---2---------|---4---------|--7---9--7--6----------||
|--4--------|---2---------|---4---------|-----------------------||
|--2--------|---0---------|---2---------|---------------7--5-4--||
|
| Gtr II
|  W           +W            +W            Q   E  E  E  E  E E
|-----------|-------------|-------------|-10--12-10--9----------||
|-10--------|-(10)--------|-(10)--------|-12--14-12-10-12-10-9--||
|-11--------|-(11)--------|-(11)--------|--------------13-11-9--||
|-----------|-------------|-------------|-----------------------||
|-----------|-------------|-------------|-----------------------||
|-----------|-------------|-------------|-----------------------||


 Pre-Chorus
  A
  Gtr I
   H..                                         S  S
|---------------------------------------------------|
|---------------------------------------------------|
|--2-------------------------------------------2--2-|
|--2-------------------------------------------2--2-|
|--0-------------------------------------------0--0-|
|---------------------------------------------------|
|
| Gtr II
|  W
|---------------------------------------------------|
|-10------------------------------------------------|
|--9------------------------------------------------|
|---------------------------------------------------|
|---------------------------------------------------|
|---------------------------------------------------|
|
| Gtr III
|  S    S  S  S  S  S  S  S  S  S  S  S  S  S  S  S
|---------------------------------------------------|
|---------------------------------------------------|
|------------18-21-18----------------18-21-18-------|
|---------19----------19----------19----------19----|
|------19----------------19----19----------------19-|
|-21------------------------21----------------------|
|---------------------------------------------------|


    W
|----------------------------------------------------|
|----------------------------------------------------|
|---2------------------------------------------------|
|---2------------------------------------------------|
|---0------------------------------------------------|
|----------------------------------------------------|
|
|  +W
|----------------------------------------------------|
|-(10)-----------------------------------------------|
|--(9)-----------------------------------------------|
|----------------------------------------------------|
|----------------------------------------------------|
|----------------------------------------------------|
|
|   S   S  S  S  S  S  S  S  S  S  S  S  S  S  S  S
|----------------------------------------------------|
|----------------------------------------------------|
|------------18-21-18----------------18-21-18--------|
|---------19----------19----------19----------19-----|
|------19----------------19----19----------------19--|
|--21-----------------------21-----------------------|
|----------------------------------------------------|


  E
   H..                                         S  S
|---------------------------------------------------|
|---------------------------------------------------|
|--9-------------------------------------------9--9-|
|--9-------------------------------------------9--9-|
|--7-------------------------------------------7--7-|
|--0-------------------------------------------0--0-|
|
| +W
|---------------------------------------------------|
|---------------------------------------------------|
|-(9)-----------------------------------------------|
|---------------------------------------------------|
|---------------------------------------------------|
|---------------------------------------------------|
|
|  S    S  S  S  S  S  S  S  S  S  S  S  S  S  S  S
|---------------------------------------------------|
|---------------17----------------------17----------|
|------------16----16----------------16----16-------|
|---------19----------19----------19----------19----|
|------19----------------19----19----------------19-|
|-19------------------------19----------------------|
|---------------------------------------------------|


   W
|---------------------------------------------------|
|---------------------------------------------------|
|--9------------------------------------------------|
|--9------------------------------------------------|
|--7------------------------------------------------|
|--0------------------------------------------------|
|
| +W
|---------------------------------------------------|
|---------------------------------------------------|
|-(9)-----------------------------------------------|
|---------------------------------------------------|
|---------------------------------------------------|
|---------------------------------------------------|
|
|  S   S  S  S  S  S  S  S  S  S  S  S  S  S  S  S
|---------------------------------------------------|
|--------------17----------------------17-----------|
|-----------16----16----------------16----16--------|
|--------18----------18----------18----------18-----|
|-----19----------------19----19----------------19--|
|-19-----------------------19-----------------------|
|---------------------------------------------------|


  Bm
  Gtr I
   H..                                         S  S
|---------------------------------------------------|
|---------------------------------------------------|
|---------------------------------------------------|
|--9-------------------------------------------9--9-|
|--9-------------------------------------------9--9-|
|--7-------------------------------------------7--7-|
|
| Gtr III
|  S    S  S  S  S  S  S  S  S  S  S  S  S  S  S  S
|---------------------------------------------------|
|---------------19----------------------19----------|
|-19---------19----19-------19-------19----19-------|
|---------21----------21----------21----------21----|
|------21----------------21----21----------------21-|
|---------------------------------------------------|
|---------------------------------------------------|


   W
|--------------------------------------------------|
|--------------------------------------------------|
|--------------------------------------------------|
|--9-----------------------------------------------|
|--9-----------------------------------------------|
|--7-----------------------------------------------|
|
|  S  S  S  S  S  S  S  S  S  S  S  S  S  S  S  S
|--------------------------------------------------|
|-------------19----------------------19-----------|
|-19-------19----19-------19-------19----19--------|
|-------21----------21----------21----------21-----|
|----21----------------21----21----------------21--|
|--------------------------------------------------|
|--------------------------------------------------|


  1.
  C#sus4
   PM----------------------------------------------
   E     S  S  E     S  S  E     S  S  E     S  S
|-------------------------------------------------|
|-------------------------------------------------|
|-------------------------------------------------|
|-------------------------------------------------|
|--4-----4--4--4-----4--4--4-----4--4--4-----4--4-|
|-------------------------------------------------|
|
|  S  S  S  S  S  S  S  S  S  S  S  S  S  S  S  S
|-------------------------------------------------|
|-------------19----------------------19----------|
|----------18----18----------------18----18-------|
|-------18----------18----------18----------18----|
|----21----------------21----21----------------21-|
|-21----------------------21----------------------|
|-------------------------------------------------|


 ----------------------------------------------|
   E     S  S  S  S  S  S  S  S  S  S  S  S  S  S
|---------------------------------------------------||
|--------------------------------------------------o||
|---------------------------------------------------||
|---------------------------------------------------||
|--4-----4--4--2--2--2--2--0--0--0--0--------------o||
|--------------------------------------4--4--4--4---||
|
|  S  S  S  S  S  S  S  S  S  S  S  S  S  S  S  S
|---------------------------------------------------||
|-------------18----------------------18------------||
|----------18----18----------------18----18--------o||
|-------18----------18----------18----------18------||
|----20----------------20----20----------------20--o||
|-21----------------------21------------------------||
|---------------------------------------------------||


  2.
  C#sus4
   PM----------------------------------------------
   E     S  S  E     S  S  E     S  S  E     S  S
|-------------------------------------------------|
|-------------------------------------------------|
|-------------------------------------------------|
|-------------------------------------------------|
|--4-----4--4--4-----4--4--4-----4--4--4-----4--4-|
|-------------------------------------------------|
|
|  S  S  S  S  S  S  S  S  S  S  S  S  S  S  S  S
|-------------------------------------------------|
|-------------19----------------------19----------|
|----------18----18----------------18----18-------|
|-------18----------18----------18----------18----|
|----21----------------21----21----------------21-|
|-21----------------------21----------------------|
|-------------------------------------------------|


 ----------------------------------------------|
   S  S  S  S  S  S  S  S  S  S  S  S  S  S  S  S
|--------------------------------------------------||
|--------------------------------------------------||
|--------------------------------------------------||
|--------------------------------------------------||
|--4--4--4--4--2--2--2--2--0--0--0--0--------------||
|--------------------------------------4--4--4--4--||
|
|  S  S  S  S  S  S  S  S  S  S  S  S  S  S  S  S
|--------------------------------------------------||
|-------------18----------------------18-----------||
|----------18----18----------------18----18--------||
|-------18----------18----------18----------18-----||
|----20----------------20----20----------------20--||
|-21----------------------21-----------------------||
|--------------------------------------------------||


 Chorus
  F#m        A          E          D    C#
  W          W          W          H    H
|----------|----------|----------|-----------|
|----------|----------|----------|-----------|
|----------|-2--------|----------|-7----6----|
|-4--------|-2--------|-2--------|-7----6----|
|-4--------|-0--------|-2--------|-5----4----|
|-2--------|----------|-0--------|-----------|


  F#m        A          D          C#              A
                                   PM----------------------------|
  W          W          W          S S S S S S S S S S S S S S S S
|----------|----------|----------|------------------------------------||
|----------|----------|----------|------------------------------------||
|----------|-2--------|-7--------|------------------------------------||
|-4--------|-2--------|-7--------|------------------------------------||
|-4--------|-0--------|-5--------|-4-4-4-4-2-2-2-2-0-0-0-0------------||
|-2--------|----------|----------|-------------------------4-4-4-4----||


  F#m
  PM----|   PM----|   PM----|     PM----|   PM----|
  S S S S E S S S S E S S S S   E S S S S E S S S S S S S S
|-----------------------------|-----------------------------|
|-----------------------------|-----------------------------|
|-----------------------------|-----------------------------|
|---------4-------------------|-----------------------------|
|-------------------4---------|-5---------2---------4s5s4p2-|
|-2-2-2-2---2-2-2-2---2-2-2-2-|---2-2-2-2---2-2-2-2---------|


                              D                F#m
          PM----|   PM----|            PM| ~~~~~~~~PM|   PM----|   PM----|
  E S S E S S S S E S S S S   Q.   E E E E E   +E  S S E S S S S E S S S S
|---------------------------|----------------|-----------------------------|
|---------------------------|----------------|-----------------------------|
|---------------------------|-7--------------|-----------------------------|
|-------4-------------------|-7----7-6-------|---------4-------------------|
|-4---------------4---------|-5--------7-5-4-|-(4)---------------4---------|
|---2-2---2-2-2-2---2-2-2-2-|----------------|-----2-2---2-2-2-2---2-2-2-2-|


                                                            D
    PM----|   PM----|             PM|   PM----|   PM----|
  E S S S S E S S S S S S S S   E S S E S S S S E S S S S   W
|-----------------------------|---------------------------|------|
|-----------------------------|---------------------------|------|
|-----------------------------|---------------------------|-7----|
|-----------------------------|-------4-------------------|-7----|
|-5---------2---------4s5s4p2-|-4---------------4---------|-5----|
|---2-2-2-2---2-2-2-2---------|---2-2---2-2-2-2---2-2-2-2-|------|


  Db5
                                       |------6-------|
   Q           E     S  S  S  S  S  S  S  S  S  S  S  S
|-----------------------------9-10-12----------10-12-14-|
|--------------------9-10-12----------10-12-14----------|
|--7----------------------------------------------------|
|--6----------------------------------------------------|
|--5----------------------------------------------------|
|-------------------------------------------------------|
|
| Gtr III
|                                      |------6-------|
|  S  S  S  S  S  S  S  S  S  S  S  S  S  S  S  S  S  S
|-------------------------------------------------------|
|----------12-14-15----------14-15-17----------15-17-19-|
|-11-13-14----------13-14-16----------14-16-18----------|
|-------------------------------------------------------|
|-------------------------------------------------------|
|-------------------------------------------------------|
|-------------------------------------------------------|


   |------6-------|  |------6-------|
   S  S  S  S  S  S  S  S  S  S  S  S  q  Q
|----------12-14-16----------14-16-17-19------||
|-12-14-15----------14-15-17------------------||
|---------------------------------------------||
|---------------------------------------------||
|---------------------------------------------||
|---------------------------------------------||
|
|  |------6-------|  |------6-------|
|  S  S  S  S  S  S  S  S  S  S  S  S  q  Q
|-------------------------------------19------||
|----------17-19-21----------19-21-22---------||
|-16-18-19----------18-19-21------------------||
|---------------------------------------------||
|---------------------------------------------||
|---------------------------------------------||
|---------------------------------------------||


 Verse
  F#m        E          F#m        D
  Gtr I
                                                 PM---|
  W          W          W           Q   E  E  E  E  E  E
|----------|----------|----------|------------------------|
|----------|----------|----------|------------------------|
|----------|----------|----------|--7---9--7--6-----------|
|-4--------|-2--------|-4--------|--7---9--7--6-----------|
|-4--------|-2--------|-4--------|------------------------|
|-2--------|-0--------|-2--------|---------------7--5--4--|
|
| Gtr II
| W          W          W           Q   E  E  E  E  E  E
|----------|----------|----------|-10--12-10--9-----------|
|----------|----------|----------|-12--14-12-10-12-10--9--|
|----------|----------|----------|--------------13-11-10--|
|----------|----------|----------|------------------------|
|----------|----------|----------|------------------------|
|----------|----------|----------|------------------------|


  F#m         E             F#m           D
  Gtr I
                                                        PM---|
   W            W             W            Q   E  E  E  E  E E
|-----------|-------------|-------------|-----------------------||
|-----------|-------------|-------------|-----------------------||
|-----------|-------------|-------------|--7---9--7--6----------||
|--4--------|---2---------|---4---------|--7---9--7--6----------||
|--4--------|---2---------|---4---------|-----------------------||
|--2--------|---0---------|---2---------|---------------7--5-4--||
|
| Gtr II
|  W           +W            +W            Q   E  E  E  E  E E
|-----------|-------------|-------------|-10--12-10--9----------||
|-10--------|-(10)--------|-(10)--------|-12--14-12-10-12-10-9--||
|-11--------|-(11)--------|-(11)--------|--------------13-11-9--||
|-----------|-------------|-------------|-----------------------||
|-----------|-------------|-------------|-----------------------||
|-----------|-------------|-------------|-----------------------||


 Pre-Chorus
  A
  Gtr I
   H..                                         S  S
|---------------------------------------------------|
|---------------------------------------------------|
|--2-------------------------------------------2--2-|
|--2-------------------------------------------2--2-|
|--0-------------------------------------------0--0-|
|---------------------------------------------------|
|
| Gtr II
|  W
|---------------------------------------------------|
|-10------------------------------------------------|
|--9------------------------------------------------|
|---------------------------------------------------|
|---------------------------------------------------|
|---------------------------------------------------|
|
| Gtr III
|  S    S  S  S  S  S  S  S  S  S  S  S  S  S  S  S
|---------------------------------------------------|
|---------------------------------------------------|
|------------18-21-18----------------18-21-18-------|
|---------19----------19----------19----------19----|
|------19----------------19----19----------------19-|
|-21------------------------21----------------------|
|---------------------------------------------------|


    W
|----------------------------------------------------|
|----------------------------------------------------|
|---2------------------------------------------------|
|---2------------------------------------------------|
|---0------------------------------------------------|
|----------------------------------------------------|
|
|  +W
|----------------------------------------------------|
|-(10)-----------------------------------------------|
|--(9)-----------------------------------------------|
|----------------------------------------------------|
|----------------------------------------------------|
|----------------------------------------------------|
|
|   S   S  S  S  S  S  S  S  S  S  S  S  S  S  S  S
|----------------------------------------------------|
|----------------------------------------------------|
|------------18-21-18----------------18-21-18--------|
|---------19----------19----------19----------19-----|
|------19----------------19----19----------------19--|
|--21-----------------------21-----------------------|
|----------------------------------------------------|


  E
   H..                                         S  S
|---------------------------------------------------|
|---------------------------------------------------|
|--9-------------------------------------------9--9-|
|--9-------------------------------------------9--9-|
|--7-------------------------------------------7--7-|
|--0-------------------------------------------0--0-|
|
| +W
|---------------------------------------------------|
|---------------------------------------------------|
|-(9)-----------------------------------------------|
|---------------------------------------------------|
|---------------------------------------------------|
|---------------------------------------------------|
|
|  S    S  S  S  S  S  S  S  S  S  S  S  S  S  S  S
|---------------------------------------------------|
|---------------17----------------------17----------|
|------------16----16----------------16----16-------|
|---------19----------19----------19----------19----|
|------19----------------19----19----------------19-|
|-19------------------------19----------------------|
|---------------------------------------------------|


   W
|---------------------------------------------------|
|---------------------------------------------------|
|--9------------------------------------------------|
|--9------------------------------------------------|
|--7------------------------------------------------|
|--0------------------------------------------------|
|
| +W
|---------------------------------------------------|
|---------------------------------------------------|
|-(9)-----------------------------------------------|
|---------------------------------------------------|
|---------------------------------------------------|
|---------------------------------------------------|
|
|  S   S  S  S  S  S  S  S  S  S  S  S  S  S  S  S
|---------------------------------------------------|
|--------------17----------------------17-----------|
|-----------16----16----------------16----16--------|
|--------18----------18----------18----------18-----|
|-----19----------------19----19----------------19--|
|-19-----------------------19-----------------------|
|---------------------------------------------------|


  Bm
  Gtr I
   H..                                         S  S
|---------------------------------------------------|
|---------------------------------------------------|
|---------------------------------------------------|
|--9-------------------------------------------9--9-|
|--9-------------------------------------------9--9-|
|--7-------------------------------------------7--7-|
|
| Gtr III
|  S    S  S  S  S  S  S  S  S  S  S  S  S  S  S  S
|---------------------------------------------------|
|---------------19----------------------19----------|
|-19---------19----19-------19-------19----19-------|
|---------21----------21----------21----------21----|
|------21----------------21----21----------------21-|
|---------------------------------------------------|
|---------------------------------------------------|


   W
|--------------------------------------------------|
|--------------------------------------------------|
|--------------------------------------------------|
|--9-----------------------------------------------|
|--9-----------------------------------------------|
|--7-----------------------------------------------|
|
|  S  S  S  S  S  S  S  S  S  S  S  S  S  S  S  S
|--------------------------------------------------|
|-------------19----------------------19-----------|
|-19-------19----19-------19-------19----19--------|
|-------21----------21----------21----------21-----|
|----21----------------21----21----------------21--|
|--------------------------------------------------|
|--------------------------------------------------|


  C#sus4
   PM----------------------------------------------
   E     S  S  E     S  S  E     S  S  E     S  S
|-------------------------------------------------|
|-------------------------------------------------|
|-------------------------------------------------|
|-------------------------------------------------|
|--4-----4--4--4-----4--4--4-----4--4--4-----4--4-|
|-------------------------------------------------|
|
|  S  S  S  S  S  S  S  S  S  S  S  S  S  S  S  S
|-------------------------------------------------|
|-------------19----------------------19----------|
|----------18----18----------------18----18-------|
|-------18----------18----------18----------18----|
|----21----------------21----21----------------21-|
|-21----------------------21----------------------|
|-------------------------------------------------|


 ----------------------------------------------|
   S  S  S  S  S  S  S  S  S  S  S  S  S  S  S  S
|--------------------------------------------------||
|--------------------------------------------------||
|--------------------------------------------------||
|--------------------------------------------------||
|--4--4--4--4--2--2--2--2--0--0--0--0--------------||
|--------------------------------------4--4--4--4--||
|
|  S  S  S  S  S  S  S  S  S  S  S  S  S  S  S  S
|--------------------------------------------------||
|-------------18----------------------18-----------||
|----------18----18----------------18----18--------||
|-------18----------18----------18----------18-----||
|----20----------------20----20----------------20--||
|-21----------------------21-----------------------||
|--------------------------------------------------||


 Chorus
  $
  $$
  F#m        A          E          D    C#
  W          W          W          H    H
|----------|----------|----------|-----------|
|----------|----------|----------|-----------|
|----------|-2--------|----------|-7----6----|
|-4--------|-2--------|-2--------|-7----6----|
|-4--------|-0--------|-2--------|-5----4----|
|-2--------|----------|-0--------|-----------|


        To Coda
  F#m        A          D          C#              A
                                   PM----------------------------|
  W          W          W          S S S S S S S S S S S S S S S S
|----------|----------|----------|------------------------------------|
|----------|----------|----------|------------------------------------|
|----------|-2--------|-7--------|------------------------------------|
|-4--------|-2--------|-7--------|------------------------------------|
|-4--------|-0--------|-5--------|-4-4-4-4-2-2-2-2-0-0-0-0------------|
|-2--------|----------|----------|-------------------------4-4-4-4----|


  F#m
  PM----|   PM----|   PM----|     PM----|   PM----|
  S S S S E S S S S E S S S S   E S S S S E S S S S S S S S
|-----------------------------|-----------------------------|
|-----------------------------|-----------------------------|
|-----------------------------|-----------------------------|
|---------4-------------------|-----------------------------|
|-------------------4---------|-5---------2---------4s5s4p2-|
|-2-2-2-2---2-2-2-2---2-2-2-2-|---2-2-2-2---2-2-2-2---------|


                              D                F#m
          PM----|   PM----|            PM| ~~~~~~~~PM|   PM----|   PM----|
  E S S E S S S S E S S S S   Q.   E E E E E   +E  S S E S S S S E S S S S
|---------------------------|----------------|-----------------------------|
|---------------------------|----------------|-----------------------------|
|---------------------------|-7--------------|-----------------------------|
|-------4-------------------|-7----7-6-------|---------4-------------------|
|-4---------------4---------|-5--------7-5-4-|-(4)---------------4---------|
|---2-2---2-2-2-2---2-2-2-2-|----------------|-----2-2---2-2-2-2---2-2-2-2-|


                                                              To Dbl. Coda
                                                            D/F#     E/F#
    PM----|   PM----|             PM|   PM----|   PM----|
  E S S S S E S S S S S S S S   E S S E S S S S E S S S S   Q.   E E E Q
|-----------------------------|---------------------------|----------------||
|-----------------------------|---------------------------|----------------||
|-----------------------------|---------------------------|----------------||
|-----------------------------|-------4-------------------|-7----6-7s9-9---||
|-5---------2---------4s5s4p2-|-4---------------4---------|-5----5-5s7-7---||
|---2-2-2-2---2-2-2-2---------|---2-2---2-2-2-2---2-2-2-2-|----------------||


 Breakdown
  F#m
  Gtr I
   S S S S  Q            H
|-----------------------------------------------|
|-----------------------------------------------|
|-----------------------------------------------|
|--4-4-4-4--4\----------------------------------|
|--4-4-4-4--4\----------------------------------|
|--2-2-2-2--2\----------------------------------|
|
| Gtr III
|  Q        S   S  S  S  S  S  S  S  S  S  S  S
|-----------------------------------------------|
|-22-------22--21-21-19-------------------------|
|-----------------------22-20-18----------------|
|--------------------------------21-19-18-------|
|-----------------------------------------21-20-|
|-----------------------------------------------|
|-----------------------------------------------|


   W
|---------------------------------------------------------------------------|
|---------------------------------------------------------------------------|
|---------------------------------------------------------------------------|
|---------------------------------------------------------------------------|
|---------------------------------------------------------------------------|
|---------------------------------------------------------------------------|
|
|  |------6-------|  |------6-------|  |------6-------|  |------6-------|
|  S  S  S  S  S  S  S  S  S  S  S  S  S  S  S  S  S  S  S  S  S  S  S  S
|---------------------------------------------------------------------------|
|---------------------------------------------------------------------------|
|---------------------------------------------------------------------------|
|----------------18-19-21-23-21-19-18-21-19-18----19-18-------18------------|
|-18----18-20-21-------------------------------21-------21-20----21-20-18---|
|----21---------------------------------------------------------------------|
|---------------------------------------------------------------------------|


  C#
   S    S     S    S     Q                 H
|-----------------------------------------------------------------------------|
|-----------------------------------------------------------------------------|
|--6----6-----6----6-----6----------------------------------------------------|
|--6----6-----6----6-----6----------------------------------------------------|
|--4----4-----4----4-----4----------------------------------------------------|
|-----------------------------------------------------------------------------|
|
|  |--------6---------|  |------6-------|  |------6-------|  |------6-------|
|  S  S    S  S  S    S  S  S  S  S  S  S  S  S  S  S  S  S  S  S  S  S  S  S
|-----------------------------------------------------------------------------|
|-----------------------------------------------------------------------------|
|-----------------------------------------------------------------------------|
|---------14-15-14------------------------------------------------------------|
|-16-17--------------17-16-14----16-14-------14-12-11----------------------11-|
|-----------------------------17-------17-16----------14-13-11----11-13-14----|
|--------------------------------------------------------------14-------------|


   W
|---------------------------------------------||
|---------------------------------------------||
|---------------------------------------------||
|---------------------------------------------||
|---------------------------------------------||
|---------------------------------------------||
|
|  |--------7--------|  |-----7-----| |-3-|
|  S  S  S  S  S  S  S  S S S S S S S Q Q Q
|---------------------------------------------||
|---------------------------------------------||
|---------------------------------------------||
|-------11-12-11----------9-7-6---------------||
|-12-14----------14-12-11-------9-8-6---------||
|-------------------------------------9-7-4---||
|---------------------------------------------||


  F#m
  Gtr I
   S S S S Q     H
|----------------------------------------------------|
|----------------------------------------------------|
|----------------------------------------------------|
|--4-4-4-4-4\----------------------------------------|
|--4-4-4-4-4\----------------------------------------|
|--2-2-2-2-2\----------------------------------------|
|
| Gtr III
|  H             H
|----------------------------------------------------|
|----------------------------------------------------|
|----------------------------------------------------|
|----------------------------------------------------|
|----------------------------------------------------|
|--2-------------------------------------------------|
|----------------------------------------------------|
|
| Gtr II
|  H            +E   T  T  T  T  T  S.  +T   T  T  T
|-21-----------(21)p19p17----------21--(21)p19p17----|
|-------------------------21p19p17----------------21p|
|----------------------------------------------------|
|----------------------------------------------------|
|----------------------------------------------------|
|----------------------------------------------------|


   W
|---------------------------------------------|
|---------------------------------------------|
|---------------------------------------------|
|---------------------------------------------|
|---------------------------------------------|
|---------------------------------------------|
|
|  W
|---------------------------------------------|
|---------------------------------------------|
|---------------------------------------------|
|---------------------------------------------|
|---------------------------------------------|
|---------------------------------------------|
|---------------------------------------------|
|
|           |-----5-----|      |-----5-----|
|  T  T  E. S  S  S  S  S  Q   S  S  S  S  S
|-------21p19p17----------21p=19p17-17--------|
|-19p17----------21p19p17--------------17h19--|
|---------------------------------------------|
|---------------------------------------------|
|---------------------------------------------|
|---------------------------------------------|


  C#
  Gtr I
   S    S    S    S     Q                  H
|-----------------------------------------------------------------------------|
|-----------------------------------------------------------------------------|
|--6----6----6----6-----6\----------------------------------------------------|
|--6----6----6----6-----6\----------------------------------------------------|
|--4----4----4----4-----4\----------------------------------------------------|
|-----------------------------------------------------------------------------|
|
| Gtr II
|  |--------5--------|  |-------6-------|  |------6-------|  |------6-------|
|  S  S    S    S    S  S   S  S  S  S  S  S  S  S  S  S  S  S  S  S  S  S  S
|-----------------------------------------------------------------------------|
|-21p19p==18------------------17h19h21p18-------------------------------------|
|--------------21---18-19--21-------------21-20-19-18-21-19p18----------------|
|--------------------------------------------------------------21-20p19-------|
|-----------------------------------------------------------------------21-19-|
|-----------------------------------------------------------------------------|


   W
|------------------------------------------------||
|------------------------------------------------||
|------------------------------------------------||
|------------------------------------------------||
|------------------------------------------------||
|------------------------------------------------||
|
|                          |-----5-----|
|  S  S  S  S  S  S  S  S  S  S  S  S  S  S  E.
|----------------------------------------19-21---||
|-------------------------------18-19-21---------||
|----------------------18-19-21------------------||
|----18-19-21-18-19-21---------------------------||
|-21---------------------------------------------||
|------------------------------------------------||


 Guitar Solo
  F#m                     Bm
  Gtr I
                PM---|                            PM---------|
    H      +E   E  E  E     H                +E   E        E  E
|-----------------------|---------------------------------------|
|-----------------------|---------------------------------------|
|-----------------------|---4----------------(4)----------------|
|---4------(4)----------|---4----------------(4)----------------|
|---4------(4)----------|---2----------------(2)--0-------------|
|---2------(2)--4--5--2-|----------------------------------4--2-|
|
| Gtr II
|  +W                      +Q           Q     H
|-(21)------------------|-(21)\---------------------------------|
|-----------------------|---------------------------------------|
|-----------------------|---------------------------------------|
|-----------------------|---------------------------------------|
|-----------------------|---------------------------------------|
|-----------------------|---------------------------------------|
|
| Gtr IV
|                                                 |--3--|
|   H      +E   E  E  E     S    S  E  +Q    +E   S  S  S  E  E
|-----------------------|---------------------------------------|
|-----------------------|---------------------------------------|
|-----------------18-21-|--19---21-19-(19)--(19)-18-19-18-------|
|--20-----(20)-21-------|---------------------------------21-19-|
|-----------------------|---------------------------------------|
|-----------------------|---------------------------------------|
|-----------------------|---------------------------------------|


  E
  Gtr IV
   |--3--|              |--3--|         |--3--|  |------6-------|
   S  S  S  S  S  S  S  S  S  S  S   S  S  S  S  S  S  S  S  S  S
|-----------------------------------------------------------------|
|--------------------------------------------21-22-21-19----19-21-|
|-----------------------------------19-21-23-------------21-------|
|-18-19-18----18----------19-21-23--------------------------------|
|----------21----19-21-23-----------------------------------------|
|-----------------------------------------------------------------|
|-----------------------------------------------------------------|
|
| Gtr I
|                                       PM---------------|
|  H                            +E      E        E        E
|-----------------------------------------------------------------|
|-----------------------------------------------------------------|
|-----------------------------------------------------------------|
|--2----------------------------(2)-------------------------------|
|--2----------------------------(2)-------------------------------|
|--0----------------------------(0)-----2--------4--------0-------|


  A
               ~~~
   S  S  S  S  H.
|-------21-22-21-----------|
|-22-24--------------------|
|--------------------------|
|--------------------------|
|--------------------------|
|--------------------------|
|--------------------------|
|
|                  PM----|
|  H               E E E E
|--------------------------|
|--------------------------|
|--2-----------------------|
|--2-----------------------|
|--0---------------0-2-4-0-|
|--------------------------|


  D
    |-------6-------|
   +S   S  S  S  S  S  E  E  E  E  E  E
|-(21)-22-21----------------------------|
|------------24-26-24-22-21-------22----|
|---------------------------23-25----23-|
|---------------------------------------|
|---------------------------------------|
|---------------------------------------|
|---------------------------------------|
|
|   W
|---------------------------------------|
|---------------------------------------|
|---------------------------------------|
|---7-----------------------------------|
|---5-----------------------------------|
|---------------------------------------|


  D#m7b5
                       |--3--|  |--3--|
   Q       +E.   T  T  E  E  E  E  E  E
|---------------------------------------|
|---------------------------------------|
|-25b26===(25)r-25-26-25-23----26----25-|
|---------------------------25----------|
|---------------------------------27----|
|---------------------------------------|
|---------------------------------------|
|
|  W
|---------------------------------------|
|---------------------------------------|
|---------------------------------------|
|--7------------------------------------|
|--6------------------------------------|
|---------------------------------------|


  A/C#
   |--3--|                          |------6-------|
   E  E  E  S  S  S  S  S  S  S  S  S  S  S  S  S  S
|----------------------------------------------------|
|-------------------------22-24-22-------------------|
|-23-22-25-------22-23-25----------25-23-22-23-22----|
|----------23-25----------------------------------25-|
|----------------------------------------------------|
|----------------------------------------------------|
|----------------------------------------------------|
|
|  W
|----------------------------------------------------|
|----------------------------------------------------|
|----------------------------------------------------|
|--7-------------------------------------------------|
|--4-------------------------------------------------|
|----------------------------------------------------|


  C#
   |--------7--------|  |------6-------|              |--3--|  |------6-------|
   S  S  S  S  S  S  S  S  S  S  S  S  S  T  T  T  T  S  S  S  S  S  S  S  S  S
|---------------------------------------------------------------------------------||
|---------------------------------------------------------------------------------||
|-------21-22-21------------------------------------------------------------------||
|-23-25----------25-23----24-23-21-------21-19-18----------------------16-18-19---||
|----------------------26----------24-23----------21-20-------18-19-20------------||
|-------------------------------------------------------22-21---------------------||
|---------------------------------------------------------------------------------||
|
|  W
|---------------------------------------------------------------------------------||
|---------------------------------------------------------------------------------||
|---------------------------------------------------------------------------------||
|--6------------------------------------------------------------------------------||
|--4------------------------------------------------------------------------------||
|---------------------------------------------------------------------------------||


     F#m                         Bm
  Gtr II
                     |---3---|
   a  H     e.    S  E  E    E    Q.    E  E  E  E  E
|------------------------------|----------------------|
|-12s14----14------------------|----------------------|
|----------------15------------|----------------------|
|-------------------18-16---14-|-------------------14-|
|------------------------------|-17----16-14-16-17----|
|------------------------------|----------------------|
|
| Gtr I
|           PM------------|                PM------|
|     H     E  E     E    E       H        E  E  E  E
|------------------------------|----------------------|
|------------------------------|----------------------|
|------------------------------|--4-------------------|
|-----4------------------------|--4-------------------|
|-----4------------------------|--2--------2--0-------|
|-----2-----2--4-----5----2----|-----------------4--2-|


  E
                         |------6-------|   |-----6------|
   E.  T  T  S  S  S  S  S  S  S  S  S  S  +E   S  S  S  S
|----------------------------------------------------------|
|--------------------14-15-17p15-14-15p14-(14)-------------|
|-----------13-14-16---------------------------16-13h14h16-|
|-14--14h16------------------------------------------------|
|----------------------------------------------------------|
|----------------------------------------------------------|
|
|                        PM-----------------------|
|  H                     E        E         E      E
|----------------------------------------------------------|
|----------------------------------------------------------|
|----------------------------------------------------------|
|--2-------------------------------------------------------|
|--2-------------------------------------------------------|
|--0---------------------0--------2---------4------0-------|


  A
                   |-----6------|  |------6-------|
   T  T  T  T  E  +E   S  S  S  S  S  S  S  S  S  S  S  S  S  S
|----------------------------------------------------------------|
|-14h15h17p15p14-(14)-------------14h15h17p15p14-----------------|
|---------------------16p13h14-16----------------16p14p13--------|
|---------------------------------------------------------16-14--|
|----------------------------------------------------------------|
|----------------------------------------------------------------|
|
|                                  PM---------------------|
|  H                               E        E        E     E
|----------------------------------------------------------------|
|----------------------------------------------------------------|
|--2-------------------------------------------------------------|
|--2-------------------------------------------------------------|
|--0-------------------------------0--------2--------4-----0-----|
|----------------------------------------------------------------|


  D
   |--------7--------|  |-----5-----|                       |--3--|
   S  S  S  S  S  S  S  S  S  S  S  S  T  T  S  S  S  S  S  S  S  S
|-------------------------------------------------------14-------14-|
|-------------14-15p14----------------14h15h17-17-15-17----16h17----|
|----13-14-16----------16-14-13-14-16-------------------------------|
|-16----------------------------------------------------------------|
|-------------------------------------------------------------------|
|-------------------------------------------------------------------|
|
|  W
|-------------------------------------------------------------------|
|-------------------------------------------------------------------|
|-------------------------------------------------------------------|
|--7----------------------------------------------------------------|
|--5----------------------------------------------------------------|
|-------------------------------------------------------------------|


  D#m7b5
         |--3--|
   S  S  S  S  S  +E.  T  T  S  S  S  S  S  +S       +S   +S
|-16-14-14h16-17-(17)-16h17p16p14-------14-(14)b16==(14)r(14)--|
|---------------------------------17-13------------------------|
|--------------------------------------------------------------|
|--------------------------------------------------------------|
|--------------------------------------------------------------|
|--------------------------------------------------------------|
|
|  W
|--------------------------------------------------------------|
|--------------------------------------------------------------|
|--------------------------------------------------------------|
|--7-----------------------------------------------------------|
|--6-----------------------------------------------------------|
|--------------------------------------------------------------|


  A/C#
                  |------6-------|  |------6-------|  |-----5-----|
   S  S  S  a  S  S  S  S  S  S  S  S  S  S  S  S  S  S  S  S  S  S
|----14-16-17s19-21p19p17-------------------------------------------|
|-18----------------------21p19p17-21p19p18-21p19p18----------------|
|----------------------------------------------------21p19p18h19h21-|
|-------------------------------------------------------------------|
|-------------------------------------------------------------------|
|-------------------------------------------------------------------|
|
|  W
|-------------------------------------------------------------------|
|-------------------------------------------------------------------|
|-------------------------------------------------------------------|
|--7----------------------------------------------------------------|
|--4----------------------------------------------------------------|
|-------------------------------------------------------------------|


  C#
   |--------7--------|  |-----5-----|  |--------7--------|  |-----5-----|
   S  S  S  S  S  S  S  S  S  S  S  S  S  S  S  S  S  S  S  S  S  S  S  S
|---------------------------------------------------------------------------|
|-18h19h21p19p18------------------------------------------------------------|
|----------------21p19p18-21p19p18----------------18h19h21p19p18------------|
|----------------------------------21p19p18h19h21----------------21p19p18---|
|---------------------------------------------------------------------------|
|---------------------------------------------------------------------------|
|
|  W
|---------------------------------------------------------------------------|
|---------------------------------------------------------------------------|
|---------------------------------------------------------------------------|
|--6------------------------------------------------------------------------|
|--4------------------------------------------------------------------------|
|---------------------------------------------------------------------------|


  A/C#
   |-----5-----|   |--------7---------|  |------5-------|
   S  S  S  S  S  +S   S  S  S  S  S  S  S   S  S    S  S  S  S  S  S
|---------------------------------------------------------------------|
|---------------------------------------------------------------18-19-|
|-------------------------------------------18-19---21-18-19-21-------|
|-21p19p18---------------18-19-21-18-19-21----------------------------|
|----------21-20-(20)-21----------------------------------------------|
|---------------------------------------------------------------------|
|
|  H                                    +E        E        E     E
|---------------------------------------------------------------------|
|---------------------------------------------------------------------|
|-------------------------------------------------4--------6----------|
|--7------------------------------------(7)----------------6-----4----|
|--4------------------------------------(4)---------------------------|
|---------------------------------------------------------------------|


  C#
   S  S  S  S  S      E.  +H
|-------------19b21==19--(19)----||
|-21-18-19-21--------------------||
|--------------------------------||
|--------------------------------||
|--------------------------------||
|--------------------------------||
|
|  W
|--------------------------------||
|--------------------------------||
|--6-----------------------------||
|--6-----------------------------||
|--4-----------------------------||
|--------------------------------||


  F#m
   +W                               +Q       E    E  +H
|-(19)---------------------------|-(19)-----19---19-(19)---------------|
|--------------------------------|-------------------------------------|
|--------------------------------|-------------------------------------|
|--------------------------------|-------------------------------------|
|--------------------------------|-------------------------------------|
|--------------------------------|-------------------------------------|
|
|   PM-----|   PM----|   PM----|        PM-----|      PM-----|
|   S  S S S E S S S S E S S S S     E  S S  S S  E   S  S S S S S S S
|--------------------------------|-------------------------------------|
|--------------------------------|-------------------------------------|
|--------------------------------|-------------------------------------|
|------------4-------------------|-------------------------------------|
|----------------------4---------|---5------------2------------4s5s4p2-|
|---2--2-2-2---2-2-2-2---2-2-2-2-|------2-2--2-2------2--2-2-2---------|


                                 D
   +W                             +W
|-(19)-------------------------|-(19)-------------|
|------------------------------|------------------|
|------------------------------|------------------|
|------------------------------|------------------|
|------------------------------|------------------|
|------------------------------|------------------|
|
|            PM----|   PM----|              PM| ~~~
|   E  S S E S S S S E S S S S     Q.   E E E E E
|------------------------------|------------------|
|------------------------------|------------------|
|------------------------------|---7--------------|
|----------4-------------------|---7----7-6-------|
|---4----------------4---------|---5--------7-5-4-|
|------2-2---2-2-2-2---2-2-2-2-|------------------|


  F#m
   +H.                  +Q
|-(19)-----------------(19)r\-------|
|-----------------------------------|
|-----------------------------------|
|-----------------------------------|
|-----------------------------------|
|-----------------------------------|
|
|~~~~~~PM|   PM----|     PM-------|
|  +E  S S E S S S S E   S    S S S
|-----------------------------------|
|-----------------------------------|
|-----------------------------------|
|----------4------------------------|
|--(4)---------------4--------------|
|------2-2---2-2-2-2-----2----2-2-2-|


                                                            D        E
  Gtr I
    PM----|   PM----|             PM|   PM----|   PM----|
  E S S S S E S S S S S S S S   E S S E S S S S E S S S S   Q.   E E E Q
|-----------------------------|---------------------------|----------------||
|-----------------------------|---------------------------|----------------||
|-----------------------------|---------------------------|----------------||
|-----------------------------|-------4-------------------|-7----6-7s9-9---||
|-5---------2---------4s5s4p2-|-4---------------4---------|-5----5-5s7-7---||
|---2-2-2-2---2-2-2-2---------|---2-2---2-2-2-2---2-2-2-2-|----------------||


   Interlude
    A
    Gtr I
     W
||--------------------------------------------------|
||o-------------------------------------------------|
||---2----------------------------------------------|
||---2----------------------------------------------|
||o--0----------------------------------------------|
||--------------------------------------------------|
|
|   Gtr III
|    S  S  S  S  S  S  S  S  S  S  S  S  S  S  S  S
||--------------------------------------------------|
||--------------17----------------------17----------|
||o-18-------18----18----------------18----18-------|
||--------19----------19----------19----------19----|
||o----19----------------19----19----------------19-|
||--------------------------21----------------------|
||--------------------------------------------------|


   W
|-------------------------------------------------|
|-------------------------------------------------|
|--2----------------------------------------------|
|--2----------------------------------------------|
|--0----------------------------------------------|
|-------------------------------------------------|
|
|  S  S  S  S  S  S  S  S  S  S  S  S  S  S  S  S
|-------------------------------------------------|
|-------------17----------------------17----------|
|----------18----18----------------18----18-------|
|-------19----------19----------19----------19----|
|----19----------------19----19----------------19-|
|-21----------------------21----------------------|
|-------------------------------------------------|


  E
   H..                                         S  S
|---------------------------------------------------|
|---------------------------------------------------|
|--9-------------------------------------------9--9-|
|--9-------------------------------------------9--9-|
|--7-------------------------------------------7--7-|
|---------------------------------------------------|
|
|  S    S  S  S  S  S  S  S  S  S  S  S  S  S  S  S
|---------------------------------------------------|
|---------------17----------------------17----------|
|-16---------16----16-------16-------16----16-------|
|---------18----------18----------18----------18----|
|------19----------------19----19----------------19-|
|---------------------------------------------------|
|---------------------------------------------------|


   W
|--------------------------------------------------|
|--------------------------------------------------|
|--9-----------------------------------------------|
|--9-----------------------------------------------|
|--7-----------------------------------------------|
|--------------------------------------------------|
|
|  S  S  S  S  S  S  S  S  S  S  S  S  S  S  S  S
|--------------------------------------------------|
|--------------------------------------------------|
|-16-------16----16-------16-------16----16--------|
|-------18----------18----------18----------18-----|
|----19-------19-------19----19-------19-------19--|
|--------------------------------------------------|
|--------------------------------------------------|


  Bm
   W
|-------------------------------------------------|
|-------------------------------------------------|
|-------------------------------------------------|
|--9----------------------------------------------|
|--9----------------------------------------------|
|--7----------------------------------------------|
|
|  S  S  S  S  S  S  S  S  S  S  S  S  S  S  S  S
|-------------------------------------------------|
|-------------19----------------------19----------|
|-19-------19----19-------19-------19----19-------|
|-------21----------21----------21----------21----|
|----21----------------21----21----------------21-|
|-------------------------------------------------|
|-------------------------------------------------|


   W
|--------------------------------------------------|
|--------------------------------------------------|
|--------------------------------------------------|
|--9-----------------------------------------------|
|--9-----------------------------------------------|
|--7-----------------------------------------------|
|
|  S  S  S  S  S  S  S  S  S  S  S  S  S  S  S  S
|--------------------------------------------------|
|-------------19----------------------19-----------|
|-19-------19----19-------19-------19----19--------|
|-------21----------21----------21----------21-----|
|----21----------------21----21----------------21--|
|--------------------------------------------------|
|--------------------------------------------------|


  1.
  A
   W
|-------------------------------------------------|
|-------------------------------------------------|
|-------------------------------------------------|
|--7----------------------------------------------|
|--7----------------------------------------------|
|--5----------------------------------------------|
|
|  S  S  S  S  S  S  S  S  S  S  S  S  S  S  S  S
|-------------------------------------------------|
|-------------17----------------------17----------|
|-18-------18----18-------18-------18----18-------|
|-------19----------19----------19----------19----|
|----19----------------19----19----------------19-|
|-------------------------------------------------|
|-------------------------------------------------|


  E
   PM------------------------------------------|
   S  S  S  S  S  S  S  S  S  S  S  S  S  S  S  S
|---------------------------------------------------||
|--------------------------------------------------o||
|---------------------------------------------------||
|---------------------------------------------------||
|--7--7--7--7--5--5--5--5--4--4--4--4--2--2--2--2--o||
|---------------------------------------------------||
|
|  S  S  S  S  S  S  S  S  S  S  S  S  S  S  S  S
|---------------------------------------------------||
|-------------17----------------------17------------||
|-16-------16----16-------16-------16----16--------o||
|-------18----------18----------18----------18------||
|----19----------------19----19----------------19--o||
|---------------------------------------------------||
|---------------------------------------------------||


  2.
  C#sus4
   PM----------------------------------------------
   E     S  S  E     S  S  E     S  S  E     S  S
|-------------------------------------------------|
|-------------------------------------------------|
|-------------------------------------------------|
|-------------------------------------------------|
|--4-----4--4--4-----4--4--4-----4--4--4-----4--4-|
|-------------------------------------------------|
|
|  S  S  S  S  S  S  S  S  S  S  S  S  S  S  S  S
|-------------------------------------------------|
|-------------19----------------------19----------|
|----------18----18----------------18----18-------|
|-------18----------18----------18----------18----|
|----21----------------21----21----------------21-|
|-21----------------------21----------------------|
|-------------------------------------------------|


  C#
 ----------------------------------------------|
   E     S  S  S  S  S  S  S  S  S  S  S  S  S  S
|--------------------------------------------------|
|--------------------------------------------------|
|--------------------------------------------------|
|--------------------------------------------------|
|--4-----4--4--2--2--2--2--0--0--0--0--------------|
|--------------------------------------4--4--4--4--|
|
|  S  S  S  S  S  S  S  S  S  S  S  S  S  S  S  S
|--------------------------------------------------|
|-------------18----------------------18-----------|
|-18-------18----18-------18-------18----18--------|
|-------18----------18----------18----------18-----|
|----20----------------20----20----------------20--|
|--------------------------------------------------|
|--------------------------------------------------|


  C#sus4
   PM----------------------------------------------
   E     S  S  E     S  S  E     S  S  E     S  S
|-------------------------------------------------|
|-------------------------------------------------|
|-------------------------------------------------|
|-------------------------------------------------|
|--4-----4--4--4-----4--4--4-----4--4--4-----4--4-|
|-------------------------------------------------|
|
|  S  S  S  S  S  S  S  S  S  S  S  S  S  S  S  S
|-------------------------------------------------|
|-------------18----------------------18----------|
|----------18----18----------------18----18-------|
|-------18----------18----------18----------18----|
|----20----------------20----20----------------20-|
|-21----------------------21----------------------|
|-------------------------------------------------|


  C#
 ----------------------------------------------|
   E     S  S  S  S  S  S  S  S  S  S  S  S  S  S
|--------------------------------------------------|
|--------------------------------------------------|
|--------------------------------------------------|
|--------------------------------------------------|
|--4-----4--4--2--2--2--2--0--0--0--0--------------|
|--------------------------------------4--4--4--4--|
|
|  S  S  S  S  S  S  S  S  S  S  S  S  S  S  S  S
|--------------------------------------------------|
|-------------18----------------------18-----------|
|----------18----18----------------18----18--------|
|-------18----------18----------18----------18-----|
|----20----------------20----20----------------20--|
|-21----------------------21-----------------------|
|--------------------------------------------------|


  C#sus4
   PM----------------------------------------------
   E     S  S  E     S  S  E     S  S  E     S  S
|-------------------------------------------------|
|-------------------------------------------------|
|-------------------------------------------------|
|-------------------------------------------------|
|--4-----4--4--4-----4--4--4-----4--4--4-----4--4-|
|-------------------------------------------------|
|
|  S  S  S  S  S  S  S  S  S  S  S  S  S  S  S  S
|-------------------------------------------------|
|-------------19----------------------19----------|
|----------18----18----------------18----18-------|
|-------18----------18----------18----------18----|
|----21----------------21----21----------------21-|
|-21----------------------21----------------------|
|-------------------------------------------------|


 ----------------------------------------------|
   E     S  S  S  S  S  S  S  S  S  S  S  S  S  S
|--------------------------------------------------|
|--------------------------------------------------|
|--------------------------------------------------|
|--------------------------------------------------|
|--4-----4--4--2--2--2--2--0--0--0--0--------------|
|--------------------------------------4--4--4--4--|
|
|  S  S  S  S  S  S  S  S  S  S  S  S  S  S  S  S
|--------------------------------------------------|
|-------------19----------------------19-----------|
|----------18----18----------------18----18--------|
|-------18----------18----------18----------18-----|
|----21----------------21----21----------------21--|
|-21----------------------21-----------------------|
|--------------------------------------------------|


  C#
   PM----------------------------------------------
   E     S  S  E     S  S  E     S  S  E     S  S
|-------------------------------------------------|
|-------------------------------------------------|
|-------------------------------------------------|
|-------------------------------------------------|
|--4-----4--4--4-----4--4--4-----4--4--4-----4--4-|
|-------------------------------------------------|
|
|  S  S  S  S  S  S  S  S  S  S  S  S  S  S  S  S
|-------------------------------------------------|
|-------------18----------------------18----------|
|----------18----18----------------18----18-------|
|-------18----------18----------18----------18----|
|----20----------------20----20----------------20-|
|-21----------------------21----------------------|
|-------------------------------------------------|


                                   D.S. al Coda
 ----------------------------------------------|
   S  S  S  S  S  S  S  S  S  S  S  S  S  S  S  S
|--------------------------------------------------||
|--------------------------------------------------||
|--------------------------------------------------||
|--------------------------------------------------||
|--4--4--4--4--2--2--2--2--0--0--0--0--------------||
|--------------------------------------4--4--4--4--||
|
|  S  S  S  S  S  S  S  S  S  S  S  S  S  S  S  S
|--------------------------------------------------||
|-------------18----------------------18-----------||
|----------18----18----------------18----18--------||
|-------18----------18----------18----------18-----||
|----20----------------20----20----------------20--||
|-21----------------------21-----------------------||
|--------------------------------------------------||


  &                     D.S.S. al Dbl. Coda
  D          C#
             PM----------------------------|
  W          S S S S S S S S S S S S S S S S
|----------|---------------------------------|
|----------|---------------------------------|
|-7--------|---------------------------------|
|-7--------|---------------------------------|
|-5--------|-4-4-4-4-2-2-2-2-0-0-0-0---------|
|----------|-------------------------4-4-4-4-|


 Out-Chorus
  &&
  F#m
  PM----|   PM----|   PM----|     PM----|   PM----|
  S S S S E S S S S E S S S S   E S S S S E S S S S S S S S
|-----------------------------|-----------------------------|
|-----------------------------|-----------------------------|
|-----------------------------|-----------------------------|
|---------4-------------------|-----------------------------|
|-------------------4---------|-5---------2---------4s5s4p2-|
|-2-2-2-2---2-2-2-2---2-2-2-2-|---2-2-2-2---2-2-2-2---------|


                              D                F#m
    PM|   PM----|   PM----|            PM| ~~~~~~~~PM|   PM----|   PM----|
  E S S E S S S S E S S S S   Q.   E E E E E   +E  S S E S S S S E S S S S
|---------------------------|----------------|-----------------------------|
|---------------------------|----------------|-----------------------------|
|---------------------------|-7--------------|-----------------------------|
|-------4-------------------|-7----7-6-------|---------4-------------------|
|-4---------------4---------|-5--------7-5-4-|-(4)---------------4---------|
|---2-2---2-2-2-2---2-2-2-2-|----------------|-----2-2---2-2-2-2---2-2-2-2-|


                                                            D        E
    PM----|   PM----|             PM|   PM----|   PM----|
  E S S S S E S S S S S S S S   E S S E S S S S E S S S S   Q.   E E E Q
|-----------------------------|---------------------------|----------------||
|-----------------------------|---------------------------|----------------||
|-----------------------------|---------------------------|----------------||
|-----------------------------|-------4-------------------|-7----6-7s9-9---||
|-5---------2---------4s5s4p2-|-4---------------4---------|-5----5-5s7-7---||
|---2-2-2-2---2-2-2-2---------|---2-2---2-2-2-2---2-2-2-2-|----------------||


 Outro
  F#m
  Gtr I
  PM----|   PM----|   PM----|     PM----|   PM----|
  S S S S E S S S S E S S S S   E S S S S E S S S S S S S S
|-----------------------------|-----------------------------|
|-----------------------------|-----------------------------|
|-----------------------------|-----------------------------|
|---------4-------------------|-----------------------------|
|-------------------4---------|-5---------2---------4s5s4p2-|
|-2-2-2-2---2-2-2-2---2-2-2-2-|---2-2-2-2---2-2-2-2---------|
|
| Gtr IV
| Q       q     E   E Q         q     E   E Q       S S S S
|-----------------------------|-----------------------------|
|-----------------------------|-----------------------------|
|-----------------------------|-----------------------------|
|---------4-------------------|-----------------------------|
|-------------------4---------|-5---------2---------4-5-4-2-|
|-----------------------------|-----------------------------|
|-----------------------------|-----------------------------|


    F#m
      PM|   PM----|   PM----|     PM----|   PM----|
    E S S E S S S S E S S S S   E S S S S E S S S S S S S S
||----------------------------|------------------------------||
||o---------------------------|-----------------------------o||
||----------------------------|------------------------------||
||--------4-------------------|------------------------------||
||o-4---------------4---------|-5---------2---------4s5s4p2-o||
||----2-2---2-2-2-2---2-2-2-2-|---2-2-2-2---2-2-2-2----------||
|
|   q     q     E   E Q         q     E   E Q       S S S S
||----------------------------|------------------------------||
||----------------------------|------------------------------||
||o---------------------------|-----------------------------o||
||--------4-------------------|------------------------------||
||o-4---------------4---------|-5---------2---------4-5-4-2-o||
||----------------------------|------------------------------||
||----------------------------|------------------------------||


  Gtr I
    PM|   PM----|   PM----|
  E S S E S S S S E S S S S
|---------------------------||
|---------------------------||
|---------------------------||
|-------4-------------------||
|-4---------------4---------||
|---2-2---2-2-2-2---2-2-2-2-||
|
| Gtr IV
| q     q     E   E Q
|---------------------------||
|---------------------------||
|---------------------------||
|-------4-------------------||
|-4---------------4---------||
|---------------------------||
|---------------------------||


  D
  Gtr I
  TP          TP           TP
  W          +W           +W
|----------|------------|--------|
|----------|------------|--------|
|-7--------|-(7)--------|-(7)----|
|-7--------|-(7)--------|-(7)----|
|-5--------|-(5)--------|-(5)----|
|----------|------------|--------|
|
| Gtr V
| W          +W           +W
|----------|------------|--------|
|----------|------------|--------|
|-7--------|-(7)--------|-(7)----|
|-7--------|-(7)--------|-(7)----|
|-9--------|-(9)--------|-(9)----|
|----------|------------|--------|


   TP              TP
  +H     +H       +W           +W
|---------------|------------|--------||
|---------------|------------|--------||
|-(7)----(7)----|-(7)--------|-(7)----||
|-(7)----(7)----|-(7)--------|-(7)----||
|-(5)----(5)----|-(5)--------|-(5)----||
|---------------|------------|--------||
|
| +W              +W           +W
|---------------|------------|--------||
|---------------|------------|--------||
|-(7)-----------|-(7)--------|-(7)----||
|-(7)-----------|-(7)--------|-(7)----||
|-(9)-----------|-(9)--------|-(9)----||
|---------------|------------|--------||


  Q=80
  F#m  E      A    Bm
                         2/4
  H    H      H    H      +H
|-----------|-----------|--------|
|-----------|-----------|--------|
|-----------|-2----4----|-(4)----|
|-4----2----|-2----4----|-(4)----|
|-4----2----|-0----2----|-(2)----|
|-2----0----|-----------|--------|


  Q=120
  C#
 4/4
             TP         TP
  W          W          W
|----------|----------|------|
|----------|----------|------|
|-6--------|-6--------|-6----|
|-6--------|-6--------|-6----|
|-4--------|-4--------|-4----|
|----------|----------|------|


                          F#m
  W          +W           W          E E +Q    H
|----------|------------|----------|----------------*|
|----------|------------|----------|----------------*|
|-6--------|-(6)--------|----------|----------------*|
|-6--------|-(6)--------|-4--------|-4-4-(4)\-------*|
|-4--------|-(4)--------|-4--------|-4-4-(4)\-------*|
|----------|------------|-2--------|-2-2-(2)\-------*|



Duration Legend
---------------
W - whole; H - half; Q - quarter; E - 8th; S - 16th; T - 32nd; X - 64th; a - acciaccatura
+ - note tied to previous; . - note dotted; .. - note double dotted
Uncapitalized letters represent notes that are staccato (1/2 duration)
Irregular groupings are notated above the duration line
Duration letters will always appear directly above the note/fret number it represents the
duration for.  Duration letters with no fret number below them represent rests.  Multi-
bar rests are notated in the form Wxn, where n is the number of bars to rest for.  Low
melody durations appear below the staff

Tablature Legend
----------------
 h   - hammer-on
 p   - pull-off
 b   - bend
 pb  - pre-bend
 r   - bend release (if no number after the r, then release immediately)
 /\  - slide into or out of (from/to "nowhere")
 s   - legato slide
 S   - shift slide
 - natural harmonic
[n]  - artificial harmonic
n(n) - tapped harmonic
 ~   - vibrato
 tr  - trill
 T   - tap
 TP  - trem. picking
 PM  - palm muting
\n/  - tremolo bar dip; n = amount to dip
 \n  - tremolo bar down
 n/  - tremolo bar up
/n\  - tremolo bar inverted dip
 =   - hold bend; also acts as connecting device for hammers/pulls
 <> - volume swell (louder/softer)
 x   - on rhythm slash represents muted slash
 o   - on rhythm slash represents single note slash

Misc Legend
-----------
 |  - bar
||  - double bar
||o - repeat start
o|| - repeat end
*|  - double bar (ending)
 :  - bar (freetime)
 $  - Segno
 &  - Coda
Tempo markers -  = BPM(8/16=s8/s16), where s8 = swing 8ths, s16 = swing 16ths

Tap to rate this tab
 
# A B C D E F G H I J K L M N O P Q R S T U V W X Y Z