Guitaretab - guitar tabs
Song name
# A B C D E F G H I J K L M N O P Q R S T U V W X Y Z

Stratovarius - Greensleeves tab

Stratovarius - Greensleeves.


Tuning: Tune down  step; 1=D#, 2=A#, 3=F#, 4=C#, 5=G#, 6=D#. 

Tabbed by: Yassin Almo aka. The Wicker Man.


Here is my version of the song.



Acoustic guitar, nylon.
e|-----------7----8-7-------------------------------------------------------|
B|-8-----10----------------10-----7------------7------8---------------------|
G|-------------------------------------7----9---------------9---9----8--9---|
D|--------------------------------------------------------------------------|
A|--------------------------------------------------------------------------|
E|--------------------------------------------------------------------------|

e|-------------------------------------7----8--7----------------------------|
B|-7-----------------------8------10---------------10-----7----------7------|
G|-------8----------9----------------------------------------7---9----------|
D|-----------9--------------------------------------------------------------|
A|--------------------------------------------------------------------------|
E|--------------------------------------------------------------------------|

e|--------------------------------------------------------------------------|
B|-8----7-------------------------------------------------------------------|
G|---------9---8---6--8----------9---9---9----------------------------------|
D|--------------------------------------------------------------------------|
A|--------------------------------------------------------------------------|
E|--------------------------------------------------------------------------|

e|----0------0------3------3-----------------2--------------2---------------|
B|---------0---0---------3---3---------3-------3----------3---3-------------|
G|-------0-------------0-------------2----2-------------4-------------------|
D|-2-------------------------------0------------------4---------------------|
A|--------------------------------------------------2-----------------------|
E|-0--------------3---------------------------------------------------------|

e|----0------0--------0------0-----------2------2---------2---------2-------|
B|---------0---0-----------0---0--------------0---0-------------------------|
G|-------0---------------0------------------2-------------------4-------4---|
D|-2--------------2------------------------------------------4--------------|
A|-----------------------------------2----------------2---------------------|
E|-0--------------0---------------------------------------------------------|
[ Tab from: http://www.guitaretab.com/s/stratovarius/136446.html ]
e|----0-----0-------3------3---------------2--------------2-----------------|
B|--------0---0----------3---3--------3------3----------3---3---------------|
G|------0--------------0------------2---2-------------4---------------------|
D|-2------------------------------0-----------------4-----------------------|
A|------------------------------------------------2-------------------------|
E|-0-------------3----------------------------------------------------------|

e|----0------0-------2-------2-----------0------------0--0------------------|
B|---------1---1-----------------------------------0-----0------------------|
G|-------0----------------4-----4-------------------------------------------|
D|----------------------4-------------------4--5----------------------------|
A|-3--------------2---------------------------------------------------------|
E|-----------------------------------0-------------------0------------------|

e|----3------3--------3------3---------------2---------------2--------------| 
B|---------3---3-----------3---3--------3-------3----------3---3------------|
G|-------0---------------0------------2---2--------------4------------------|
D|----------------------------------0------------------4--------------------|
A|---------------------------------------------------2----------------------| 
E|-3---------------3--------------------------------------------------------|

e|----0-----0-------0------0--------2------2--------2--------2--------------|
B|--------0---0----------0---0-----------0---0------------------------------|
G|------0--------------0---------------2------------------4-----4-----------|
D|-2-------------2-------------------------------------4--------------------|
A|-------------------------------2---------------2--------------------------|
E|-0-------------0----------------------------------------------------------|

e|----3-----3-------3------3--------3------3--------------2------------2----|
B|--------3---3----------3---3-----------3---3-------3------3--------3---3--|
G|------0--------------0---------------0-----------2---2-----------4--------|
D|-----------------------------------------------0---------------4----------|
A|-------------------------------------------------------------2------------|
E|-3-------------3---------------3------------------------------------------|

e|----0-----0-------2-------2---------0---------0----0----------------------|
B|--------1---1-------------------------------0-----------------------------|
G|------0----------------4-----4--------------------------------------------|
D|--------------------4-----------------4--5--------------------------------| 
A|-3-------------2-----------------------------------0----------------------|
E|---------------------------------0-----------------0----------------------|  
Related for Greensleeves tab