Song name
# A B C D E F G H I J K L M N O P Q R S T U V W X Y Z

Stratovarius - Tomorrow tab

Artist:Stratovarius
Song:Tomorrow
Album:Episode
Transcribed by: Ruben Capetillo

Standard tuning
(overdriven Guitar)



Intro:
e|--6--9-7-6------------7-6-4-----------7-6-4------------------------|
B|----------9-7-9------------7-6-7-----------7-6-11^---12-11-9-------|
G|-------------------------------------------------------------------|
D|-------------------------------------------------------------------|
A|-------------------------------------------------------------------|
E|-------------------------------------------------------------------|x2




 this is whre drims come in
e|--6--9-7-6------------7-6-4-----------7-6-4------------------------|
B|----------9-7-9------------7-6-7-----------7-6-9/11^---12-11-9-----|
G|-------------------------------------------------------------------|
D|-------------------------------------------------------------------|
A|-------------------------------------------------------------------|
E|-------------------------------------------------------------------|x2


    Hey, I came out With this song by myself So i hpo You ENJOY it !!!






Tap to rate this tab
 
# A B C D E F G H I J K L M N O P Q R S T U V W X Y Z