Song name
# A B C D E F G H I J K L M N O P Q R S T U V W X Y Z

Stratovarius - Hunting High And Low tab

Stratovarius
Hunting High And Low- Solo

e|----------------------------------------------------------------------|
B|----------------------------------------------------12-12-12-12-12-12-|
G|-11/13-9----------9-11-8-------8-9-13-13-13-13-13-9-------------------|
D|---------11----11--------9---9----------------------------------------|
A|------------11-------------9------------------------------------------|
E|----------------------------------------------------------------------|

e|---------------|
B|-------9h10----|
G|-11h13------11-|
D|---------------|
A|---------------|
E|---------------|

e|----------------------------------------------------------------------|
B|----------------------------------------------------12-12-12-12-12-12-|
G|-11/13-9----------9-11-8-------8-9-13-13-13-13-13-9-------------------|
D|---------11----11--------9---9----------------------------------------|
A|------------11-------------9------------------------------------------|
E|----------------------------------------------------------------------|

e|----------------------|
B|----------------------|
G|-13-------------------|
D|----------------------|
A|----------------------|
E|----------------------|

h = hammer on
/ = slide up
\ = slide down

Tap to rate this tab
 
# A B C D E F G H I J K L M N O P Q R S T U V W X Y Z