Song name
# A B C D E F G H I J K L M N O P Q R S T U V W X Y Z

Stratovarius - Lifetime In A Moment tab

Stratovarius - Lifetime In A Moment

Intro
D#|----------------------------------------------------------------|
A#|----------------------------------------------------------------|
F#|----------------------------------------------------------------|
C#|--777-88--555-77----777-88--555-77------------------------------|
G#|--555-55--555-55----555-55--555-55------------------------------|
C#|----------------------------------------------------------------|

                                                                 2x    
D#|----------------------------------------------------------------|
A#|----------------------------------------------------------------|
F#|----------------------------------------------------------------|
C#|--777-88---------555-77---------777-88---------555-77-----------|
G#|--555-55---------555-55---------555-55---------555-55-----------|
C#|---------000-000--------000-000--------000-000--------000-000---|
            ... ...        ... ...        ... ...        ... ...

D#|----------------------------------------------------------------|
A#|----------------------------------------------------------------|
F#|----------------------------------------------------------------|
C#|--777-88---------555-77-----------------------------------------|
G#|--555-55---------555-55-----------------------------------------|
C#|---------000-000--------000-000---------------------------------|
            ... ...        ... ...        

Verse 
D#|----------------------------------------------------------------|
A#|----------------------------------------------------------------|
F#|----------------------------------------------------------------|
C#|--777-88---------555-77-----------------------------------------|
G#|--555-55---------555-55-----------------------------------------|
C#|---------000-000--------000-000---------------------------------|
            ... ...        ... ...        

Pre chorus
D#|----------------------------------------------------------------|
A#|----------------------------------------------------------------|
F#|--7----5----10----12----7----5----10----12----------------------|
C#|--7----5----10----12----7----5----10----12----------------------|
G#|--5----3----8-----10----5----3----8-----10----------------------|
C#|----------------------------------------------------------------|

Chorus
                                                                 2x
D#|----------------------------------------------------------------|
A#|----------------------------------------------------------------|
F#|----------------------------------------------------------------|
C#|--777-88---------555-77---------777-88---------555-77-----------|
G#|--555-55---------555-55---------555-55---------555-55-----------|
C#|---------000-000--------000-000--------000-000--------000-000---|
            ... ...        ... ...        ... ...        ... ...

Verse
Pre chorus
Chorus
Vocal+Solo
Intro+Chorus 4x
Outro
                                                Tabbed by Mcmartini
Tap to rate this tab
# A B C D E F G H I J K L M N O P Q R S T U V W X Y Z