Song name
# A B C D E F G H I J K L M N O P Q R S T U V W X Y Z

Stratovarius - Phoenix tab

Stratovarius Phoenix Intro

E|--------------------------------------------------------------------|
B|--------------------------------------------------------------------|
G|--------------------------------------------------------------------|
D|------8--8-----------9----9------6---8--9---------------------------|
A|---6--------6--6----------------------------------------------------|
E|--------------------------------------------------------------------|


E|--------------------------------------------------------------------|
B|--------------------------------------------------------------------|
G|--------------------------------------------------------------------|
D|--------8---8---------6--6------------------------------------------|
A|-----6----------6--6-----------9----8---6---------------------------|
E|--------------------------------------------------------------------|

E|--------------------------------------------------------------------|
B|--------------------------------------------------------------------|
G|--------------------------------------------------------------------|
D|------8--8-----------9----9------6---8--9---------------------------|
A|---6--------6--6----------------------------------------------------|
E|--------------------------------------------------------------------|


E|--------------------------------------------------------------------|
B|--------------------------------------------------------------------|
G|--------------------------------------------------------------------|
D|--8--6--4-----6---4-------------4-----------------------------------|
A|-----------8-----------8---6-----------8---6---5--6-----------------|
E|--------------------------------------------------------------------|

This is my first tab ever hope you like it... see ya!
Tap to rate this tab
# A B C D E F G H I J K L M N O P Q R S T U V W X Y Z