Song name
# A B C D E F G H I J K L M N O P Q R S T U V W X Y Z

Stratovarius - Millennium tab

Guitar: 6 Strings
Tuning: d# A# F# C# G# D#
Key:
 * Pinch Harmonic
 ~ Vibrato
 / Slide Up
 \ Slide Down
 . Palm Mute
 w Whammy
 h Hammer-On
 p Pull-Off

Intro Riff:

d#|---------------------------------------------------------------------------|
A#|---------------------------------------------------------------------------|
F#|---------------------------------------------------------------------------|
C#|-----------------------------------7~--------------------------------------|
G#|10-9-10---------------------10-9-------9-10-9-10---------------------10-9--|
D#|--------0-0-0-0-0-0-0-0-0-0------0---------------8-8-8-8-8-8-8-8-8-8------0|
           . . . . . . . . . .      .               . . . . . . . . . .      .

d#|------------------------------------------------------------------------------|
A#|------------------------------------------------------------------------------|
F#|------------------------------------------------------------------------------|
C#|7~---------------------------------------7------------------------------------|
G#|----9-10-9-7---------------------7-------5----9----10-9-10--------------------|
D#|-------------5-5-5-5-5-5-5-5-5-5-5------------7------------0-0-0-0-0-0-0-0-0-0|
                . . . . . . . . . .                           . . . . . . . . . .

d#|--------------------------------------------------------------|
A#|--------------------------------------------------------------|
F#|--------------------------------------------------------------|
C#|--------7~---------------------------------------7~-----------|
G#|-10-9-------9-10-9-10---------------------10-9-------9-10-9-7-|
D#|------0---------------8-8-8-8-8-8-8-8-8-8------0--------------|
         .               . . . . . . . . . .      .

d#|--------------------------------------|
A#|--------------------------------------|
F#|--------------------------------------|
C#|----------------------------5----4----|
G#|--------------------7-------3----2----|
D#|5-5-5-5-5-5-5-5-5-5-5-----------------|
   . . . . . . . . . .

Pre-Verse Riff:

d#|---------------------------------------------|
A#|---------------------------------------------|
F#|---------------------------------------------|
C#|---------------------------------------------| x 4
G#|----7----5----3----2h3p2p0-2----2h3p2p0-2----|
D#|-00---00---00---00-----------00-----------320|
    ..   ..   ..   ..           ..           ...

Verse Riff:

d#|------------------------------------------------------------|
A#|------------------------------------------------------------|
F#|------------------------------------------------------------|
C#|----------------------------------------4----9----5----4----|
G#|-2----------------------5-555-555-555-5-2----7----3----2----|
D#|-0------3-333-333-333-3-------------------------------------|
           . ... ... ... . . ... ... ... .

d#|-------------------------------------------------------|
A#|-------------------------------------------------------|
F#|-------------------------------------------------------|
C#|5------------------------------------------5----7------|
G#|3------------------------------------------3----5------|
D#|-------0-000-000-000-000-000-000-000-000-0-------------|
          . ... ... ... ... ... ... ... ... .

Chorus: Same as Intro Riff

Pre-Solo: Pre-Verse Riff

Solo Rhythm Guitar:

d#|---------------------------------------------|
A#|---------------------------------------------|
F#|---------------------------------------------|
C#|----7----5----3----2h3p2p0-2----2h3p2p0-2----| x 4
G#|-00---00---00---00-----------00-----------320|
D#|---------------------------------------------|
    ..   ..   ..   ..           ..           ...

d#|-------------------------------------------------|
A#|-------------------------------------------------|
F#|-------------------------------------------------|
C#|----9----7---------------------------------------| x 4
G#|--------------10----9h10p9p7-9----9h10p9p7-9-----|
D#|-77---77---77----77------------77------------1090|
    ..   ..   ..    ..            ..             ...

Outro: Pre-Verse Riff x 7 + Riff Below

d#|------------------------------------------------------|
A#|------------------------------------------------------|
F#|------------------------------------------------------|
C#|------------------------------------------3-----------|
G#|----7----5----3----2h3p2p0-2----2h3p2p0-2-1------2-2--|
D#|-00---00---00---00-----------00------------------0-0--|
    ..   ..   ..   ..           ..
Tap to rate this tab
# A B C D E F G H I J K L M N O P Q R S T U V W X Y Z