Guitaretab - guitar tabs
Song name
# A B C D E F G H I J K L M N O P Q R S T U V W X Y Z

Stratovarius - Forever Free tab

                                 Forever free
                              ------------------
                               by Stratovarius

From album "Visions"
Tabbed by Sami Rikala
email=rikala@pp.qnet.fi


tune  step down
intro riff     p.m       p.m        p.m        p.m      p.m     p.m
2x   p.m      |--|      |--|       |--|       |--|     |--|     |-|   
|---|---|--------------------------------------------------------------------------------------|
|----------------------------------------------------------------------------------------------|
|----------------------------------------------------------------------------------------------|
|----------------------------------------------------------------------------------------------|
|---7------7-9-----9-10-----10-12-----15-14-----7-9-----9-10---10--9-10------------------------|
|------0-0-----0-0------0-0-------0-0-------0-0-----0-0------0--8--8--8------------------------|

     p.m      p.m       p.m                  p.m      p.m      p.m
    |--|     |--|      |--|                 |--|     |--|      |-|
|----------------------------------------------------------------------------------------------|
|----------------------------------------------------------------------------------------------|
|----------------------------------------------------------------------------------------------|
|----------------------------------------------------------------------------------------------|
|---7------7-9-----9-10-----10-12-10-9-10-7-----7-9------9-10--10--9-10------------------------|
|------0-0-----0-0------0-0-----------------0-0-----0-0-------0-8--8--8------------------------|


gtr1        gtr2?
|------------------------------------------------------------------------------------------|
|----13--13~--------12--12~--------13--13~-------12--12~--10--8--10----------------------------|
|------------11-12----------11-12---------11-12------------------------------------------------|
|----9-----------------------------------------------------------------------------------------|
|----7-----------------------------------------------------------------------------------------|
|----0-----------------------------------------------------------------------------------------|


1st verse
2x
|----------------------------------------------------------------------------------------------|
|----------3-------------------------------3-------------------15----14------------------------|
|----------2-------------------------------2----------------------14----14--11~----------------|
|----------0---------------4---------------0---------------------------------------------------|
|--4--------------4--------2-------4---------------4-------------------------------------------|
|--2--------------2----------------2---------------2-------------------------------------------|


           p.m               p.m                             p.m           p.m
     |--------------| |---------------| 1st time p.m       |---------|  |--------| 
|-------------------------------------|---|--------------|------------------------|------------|
|-------------------------------------|-------------------------------------------|------------|
|-------------------------------------|-------------------------------------------|------------|
|--9-----------------5----------------|-6-----------------7-----------8-----------|--7---------|
|--7-7-7-7-7-7-7-7-7-3-3-3-3-3-3-3-3-3|-4-4-4-4-4-4-4-4-4-5-5-5-5-5-5-6-6-6-6-6-6-|--5---------|
|-------------------------------------|-------------------------------------------|------------|


     Slight palm mute                                                                          
| |----------------------------------------------------------------------------------------|   | 
|----------------------------------------------------------------------------------------------|
|--8-0-0-0-8-0-0-0-10-0-0-0-12-8-0-0-0-10-0-0-0-12-0-0-0-8-0-0-0-8-0-0-0-10-0-0-0-12-0-0-0-----|
|----------------------------------------------------------------------------------------------|
|----------------------------------------------------------------------------------------------|
|----------------------------------------------------------------------------------------------|
|----------------------------------------------------------------------------------------------|

chorus
|----------------------------------------------------------------------------------------------|
|----------------------------------------------------------------------------------------------|
|----------------------------------------------------------------------------------------------|
|-----------5-------7-----------------5-------7-------2-------5-------7-------8------5------7--|
|---5-------3-------5---------5-------3-------5-------2-------3-------5-------6------3------5--|
|---3-------------------------3-----------------------0----------------------------------------|

intro riff

2nd verse

chorus

intro riff

gtr1
|--------------------------------------------------------------------------------------------|
|---12-13-----12-13--13-13-12-------------------------12-13-----12-13-13-13-17--15^17^15-12|
|12---------12------------------12-12----------------12---------12-----------------------------|
|--------------------------------------14-14---------------------------------------------------|
|---------------------------------------------14-14--------------------------------------------|
|----------------------------------------------------------------------------------------------|

[ Tab from: http://www.guitaretab.com/s/stratovarius/43782.html ]
|--------------------------------------------------------------------------------------17--22-|
|-----12-13-----12-13--13-13-12-----------------------5-7-----10-15------19--22---/19--------|
|--12---------12------------------12-12-------------/7------/11--------/19---------------------|
|---------------------------------------14-14--------------------------------------------------|
|---------------------------------------------14-14--------------------------------------------|
|----------------------------------------------------------------------------------------------|

keyboard solo               
rhythm	      p.m            p.m	   p.m
4x       |-----------|  |-----------|  |-----------|
|----------------------------------------------------------------------------------------------|
|----------------------------------------------------------------------------------------------|
|----------------------------------------------------------------------------------------------|
|----------------------------------------------------------------------------------------------|
|---4--------------4--------------4--------------4--2--2---------------------------------------|
|---2--2-2-2-2-2-2-2--2-2-2-2-2-2-2--2-2-2-2-2-2-2--0--0---------------------------------------|


?????????????
?guitar solo????
?????????????    
                       Bm                                         Bm 
|----15^17^19--21--21-21-19--22-21-19-18-19-17-15-14-17-15-14----15-14-------14----------------|
|-------------------------------------------------------------17-------17-15----17-15-14-17-15-|
|----------------------------------------------------------------------------------------------|
|----------------------------------------------------------------------------------------------|
|----------------------------------------------------------------------------------------------|
|----------------------------------------------------------------------------------------------|

               Bm					Bm					
|------------15^14^12^14^12----12--------------------------------------------------------------|
|-14------------------------15----15^14^12-14^12^11----11-14^12^11----11-----------------------|
|----14-16------------------------------------------12-------------12----12^11----11-----------|
|------------------------------------------------------------------------------14----14-12-11--|
|----------------------------------------------------------------------------------------------|
|----------------------------------------------------------------------------------------------|

		Bm						Bm
|---------------------------------------------------------------------------12-14----/19-19----|
|----------------------------------12-14-15--^14^12----------------12-14-15--------------------|
|-------------------------11-13-14------------------14-13-11-13-14-----------------------------|
|----------------11-12-14----------------------------------------------------------------------|
|-14-12-10-12-14-------------------------------------------------------------------------------|
|----------------------------------------------------------------------------------------------|


|------------------------------------------------------|------14----17-----22\--------------|
|--15--15-13--15-15--13-12--13-13--12-10--8--12--10--8--7-|--15--------------------------------|
|---------------------------------------------------------|------------------------------------|
|---------------------------------------------------------|------------------------------------|
|---------------------------------------------------------|------------------------------------|
|---------------------------------------------------------|------------------------------------|

chorus

chorus2
|----------------------------------------------------------------------------------------------|
|----------------------------------------------------------------------------------------------|
|----------------------------------------------------------------------------------------------|
|------------7-----9-------------7-------9-------------7-----9----10-----7------9--------------|
|----7-------5-----7-------7-----5-------7-------4-----5-----7-----8-----5------7--------------|
|----5---------------------5---------------------2---------------------------------------------|


      p.m      p.m     p.m        p.m        p.m     p.m     
     |--|     |--|    |--|       |--|       |--|    |--|
|----------------------------------------------------------------------------------------------|
|----------------------------------------------------------------------------------------------|
|----------------------------------------------------------------------------------------------|
|----------------------------------------------------------------------------------------------|
|--7------7-9-----9-10------10-12-----15-14------7-9-----9-10--10--9-10------------------------|
|-----0-0-----0-0------0-0--------0-0--------0-0-----0-0------0-8--8--8------------------------|


     p.m      p.m     p.m                  p.m     p.m
    |--|     |--|    |--|                 |--|    |--|                    repeat and fade out
|----------------------------------------------------------------------------------------------|
|----------------------------------------------------------------------------------------------|
|----------------------------------------------------------------------------------------------|
|----------------------------------------------------------------------------------------------|
|-7------7-9-----9-10-----10-12-10-9-10-7-----7-9-----9-10--10--9-10---------------------------|
|----0-0-----0-0------0-0-----------------0-0-----0-0------0-8--8--8---------------------------|


			^ = Pulling on /hammer
			/ = slide
			 = bend half step
Related for Forever Free tab