Guitaretab - guitar tabs
Song name
# A B C D E F G H I J K L M N O P Q R S T U V W X Y Z

Stratovarius - Galaxies tab

                                   Galaxies
                              ------------------
                               by Stratovarius      

From album "4th Dimension"
Tab by Stratovarius 
transcription team (Sami Rikala) 
email=rikala@pp.qnet.fi

Tune 1/2 down
Intro

|-------------|--------------------------------------------------------------------------------|
|-------------|--------------------------------------------------------------------------------|
|--Keyboards--|--------------------------------------------------------------------------------|
|-------------|---5---------------------------------5--------------------------------------7---|
|-------------|---3-------6-------8--------5--------3--------6-------8-------5------7------5---|
|-------------|-----------4-------6--------3-----------------4-------6-------3------5----------|


1st verse
2x
clean  
|-------0-----------0------------0------------0------------0-----------------------------------|
|--------6------------6-----------6------------3------------5----------------------------------|
|---------7------------7-----------7------------3------------5---------------------------------|
|----------7------------7-----------7------------3------------5--------------------------------|
|-----------5------------5-----------5------------1------------3-------------------------------|
|----------------------------------------------------------------------------------------------|


|----------------------------------------------------------------------------------------------|
|----------------------------------------------------------------------------------------------|
|----------------------------------------------------------------------------------------------|
|---3-------5-------7---------7---7--5---3-------------2---------------------------------------|
|---1-------3-------5-----5-5-5-5-5--3---1------5------0---------------------------------------|
|-----------------------------------------------3----------------------------------------------|


Chorus
2x
|----------------------------------------------------------------------------------------------|
|*--------------------------------------------------------------------------------------------*|
|----------------------------------------------------------------------------------------------|
|-------5---7-------3------------5-----7------3------------------------------------2-----------|
|*--3---3---5-------1------3-----3-----5------1-------1---0----5------3-----2------0----------*|
|---1----------------------1-----------------------------------3------1-----0------------------|

[ Tab from: http://www.guitaretab.com/s/stratovarius/43783.html ]
Solo
 p.m......................|
|----------------------------------------------------------------------------------------------|
|--------------------------------------------b-------------------------------------------------|
|---------------------------11--12^11-------14--14--12-11--12^11-------------------------------|
|--------------12-12-14-14------------14--------------------------14---------------------------|
|-12-12-14-14----------------------------------------------------------9--10-7~---------------|
|---------------------------------------------------------------------------------7--7--5------|


                           
|-------------------19-19--19--19--15--15--15-14^15^14-12--------------------------------------|
|--0-b-----------17----------------------------------------------------------------------------|
|--16--16~--16--------------------------------------------14-14-14--16--17--17---17--17--16--14|
|----------------------------------------------------------------------------------------------|
|----------------------------------------------------------------------------------------------|
|----------------------------------------------------------------------------------------------|


                         b                         b    
|----------------14-17--20--17--14--------b-------17---17--15---17-15-14-17-15-14--------------|
|-------------15-------------------15----15--15-----------------------------------17-15-14-----|
|--/19----14--------------------------14-------------------------------------------------------|
|----------------------------------------------------------------------------------------------|
|----------------------------------------------------------------------------------------------|
|----------------------------------------------------------------------------------------------|

                                                                        p.m---->        
|----------------------------------------------------------------------------------------------|
|-17-15-14------------------------------------------------------------------14----15----17--15-|
|----------16-14-12-16-14-12-14-12-11-14-12-11---------------------------14---14----14---14---|
|----------------------------------------------14-12-11-14-12-11--11--11-----------------------|
|----------------------------------------------------------------------------------------------|
|----------------------------------------------------------------------------------------------|


|----------------------------------------------------------------------------------------------|
|--14----14---/22\-----------------------------------------------------------------------------|
|-----14---------------------------------------------------------------------------------------|
|----------------------------------------------------------------------------------------------|
|----------------------------------------------------------------------------------------------|
|----------------------------------------------------------------------------------------------|

Repeat chorus

                                    = Bend  step                                      
                                   b = Bend 1 step      
                                 p.m = Palm Muting 
                                   / = Slide    
                                   ^ = Pull off/Hammer on
Related for Galaxies tab