Guitaretab - guitar tabs
Song name
# A B C D E F G H I J K L M N O P Q R S T U V W X Y Z

Stratovarius - Twilight Symphony tab

#----------------------------------PLEASE NOTE---------------------------------#
#This file is the author's own work and represents their interpretation of the #
#song. You may only use this file for private study, scholarship, or research. #
#------------------------------------------------------------------------------#

TWILIGHT SYMPHONY
As recorded by Stratovarius
(From the 1994 Album FOURTH DIMENSION)


	

Words and Music by Timo Tolkki

Gtr I (D# G# C# F# A# D#) - 'Timo Tolkki'
Gtr II (D# G# C# F# A# D#) - 'Timo Tolkki (Solo & Fills)'
Gtr III (D# G# C# F# A# D#) - 'Timo Tolkki (Acoustic)'
Gtr IV (D# G# C# F# A# D#) - 'Antti Ikonen (Choir)'
Gtr V (D# G# C# F# A# D#) - 'Antti Ikonen (Harpsichord)'

 Intro
  Q=134
  N.C.                                                   D   Eb  C     D
 4/4                                                                  2/4
  Gtr I
               PM------|
   S  S  S  S  S  S  S  S  S  S  S  S  S  S  S  S    E E E E E E E E   E E Q
|-10h11p10----------------------------------------|------------------|--------|
|----------13-11-10-------------------------------|------------------|--------|
|-------------------12-11-12p11-------------------|------7---8---5---|-7------|
|-------------------------------13p12-10----------|------7---8---5---|-7------|
|----------------------------------------13p12-10-|--9---5---6---3---|-5------|
|-------------------------------------------------|------------------|--------|
|
| Gtr V
|  S  S  S  S  S  S  S  S  S  S  S  S  S  S  S  S    E E Q   H         W
|-22h23p22----------------------------------------|------------------|--------|
|----------25-23-22-------------------------------|------------------|--------|
|-------------------24-23-24p23-------------------|------------------|--------|
|-------------------------------25p24-22----------|------------------|--------|
|----------------------------------------25p24-22-|-21---------------|--------|
|-------------------------------------------------|------------------|--------|


  N.C.                                                   D   Eb  C     D
 4/4                                                                  2/4
               PM------|
   S  S  S  S  S  S  S  S  S  S  S  S  S  S  S  S    E E E E E E E E   E E Q
|-10h11p10----------------------------------------|------------------|--------|
|----------13-11-10-------------------------------|------------------|--------|
|-------------------12-11-12p11-------------------|------7---8---5---|-7-7----|
|-------------------------------13p12-10----------|------7---8---5---|-7-7----|
|----------------------------------------13p12-10-|--9---5---6---3---|-5-5----|
|-------------------------------------------------|------------------|--------|
|
|  S  S  S  S  S  S  S  S  S  S  S  S  S  S  S  S    E E Q   H         W
|-22h23p22----------------------------------------|------------------|--------|
|----------25-23-22-------------------------------|------------------|--------|
|-------------------24-23-24p23-------------------|------------------|--------|
|-------------------------------25p24-22----------|------------------|--------|
|----------------------------------------25p24-22-|-21---------------|--------|
|-------------------------------------------------|------------------|--------|


  N.C.                                                   D   Eb  C     D
 4/4                                                                  2/4
               PM------|
   S  S  S  S  S  S  S  S  S  S  S  S  S  S  S  S    E E E E E E E E   E E Q
|-10h11p10----------------------------------------|------------------|--------|
|----------13-11-10-------------------------------|------------------|--------|
|-------------------12-11-12p11-------------------|------7---8---5---|-7------|
|-------------------------------13p12-10----------|------7---8---5---|-7------|
|----------------------------------------13p12-10-|--9---5---6---3---|-5------|
|-------------------------------------------------|------------------|--------|
|
|  S  S  S  S  S  S  S  S  S  S  S  S  S  S  S  S    E E Q   H         W
|-22h23p22----------------------------------------|------------------|--------|
|----------25-23-22-------------------------------|------------------|--------|
|-------------------24-23-24p23-------------------|------------------|--------|
|-------------------------------25p24-22----------|------------------|--------|
|----------------------------------------25p24-22-|-21---------------|--------|
|-------------------------------------------------|------------------|--------|


                                                         D   Eb  C     D
 4/4                                                                  2/4
               PM------|
   S  S  S  S  S  S  S  S  S  S  S  S  S  S  S  S    E E E E E E E E   E E Q
|-10h11p10----------------------------------------|------------------|--------||
|----------13-11-10-------------------------------|------------------|--------||
|-------------------12-11-12p11-------------------|------7---8---5---|-7-7----||
|-------------------------------13p12-10----------|------7---8---5---|-7-7----||
|----------------------------------------13p12-10-|--9---5---6---3---|-5-5----||
|-------------------------------------------------|------------------|--------||
|
|  S  S  S  S  S  S  S  S  S  S  S  S  S  S  S  S    E E Q   H         W
|-22h23p22----------------------------------------|------------------|--------||
|----------25-23-22-------------------------------|------------------|--------||
|-------------------24-23-24p23-------------------|------------------|--------||
|-------------------------------25p24-22----------|------------------|--------||
|----------------------------------------25p24-22-|-21---------------|--------||
|-------------------------------------------------|------------------|--------||


  Eb               F             D
 4/4
  Gtr I
   ~~~~             ~~~           ~~~~
   H..       S S    H.      Q     H..       S  S
|----------------|-------------|-----------------|
|----------------|-------------|------------8-10-|
|--8---------7-8-|-10-------8--|--7---------8-10-|
|----------------|-------------|-----------------|
|--6---------5-6-|--8-------6--|--5---------6--8-|
|----------------|-------------|-----------------|
|
| Gtr IV
|  W                W             W
|----------------|-------------|-----------------|
|----------------|-------------|-----------------|
|----------------|-------------|-----------------|
|-17-------------|-19----------|-16--------------|
|-18-------------|-20----------|-17--------------|
|-18-------------|-20----------|-17--------------|


  Gm              Eb
                   ~~
   H     Q   Q     H     Q   Q
|---------------|-----------------|
|-11----11--10--|-----------------|
|-12----12--10--|-12----12--10----|
|--5-----5------|-13----13--12----|
|------------8--|--6-----6---5----|
|---------------|-----------------|
|
|  W               W
|---------------|-----------------|
|---------------|-----------------|
|---------------|-----------------|
|-17------------|-17--------------|
|-17------------|-18--------------|
|-18------------|-18--------------|


  Cm              Ab                Db
   ~~              ~~                ~~
   H     Q   Q     H     Q   E  E    H     Q   E  E
|---------------|-----------------|-----------------|
|---------------|-----------------|---------------6-|
|--8-----8------|---------------5-|--6-----6---8-10-|
|-10----10--12--|-10-----6---8-10-|-11----11--13--3-|
|--3-----3--13--|-11----11--13--3-|--4-----4---6----|
|------------6--|--4-----4---6----|-----------------|
|
|  W               W                 W
|---------------|-----------------|-----------------|
|---------------|-----------------|-----------------|
|-17------------|-17--------------|-18--------------|
|-17------------|-18--------------|-18--------------|
|-18------------|-18--------------|-20--------------|
|---------------|-----------------|-----------------|


  G
   ~~           PM-------------------|
   W            S   S  S  S  S  S  S  S  E E Q
|-----------|------------------------------------||
|--3--------|------------------------------------||
|--7--------|--12--13-12-10-12-13-12-10-12-------||
|--5--------|---5---6--5--3--5--6--5--3--5-------||
|-----------|------------------------------------||
|-----------|------------------------------------||
|
|  W           +W
|-----------|------------------------------------||
|-----------|------------------------------------||
|-16--------|-(16)-------------------------------||
|-17--------|-(17)-------------------------------||
|-17--------|-(17)-------------------------------||
|-----------|------------------------------------||


    Cm
    Gtr I
     W
||---------------------------------------|
||o--------------------------------------|
||---5-----------------------------------|
||---5-----------------------------------|
||o--3-----------------------------------|
||---------------------------------------|
|
|   Gtr V
|    S  S  S  S  E  S  S  S  S  S  S  Q
||---------------------------------------|
||o--------------------------------------|
||---------------------------------------|
||-----------15-17----------15-17-18-17--|
||o-15-17-18-------15-17-18--------------|
||---------------------------------------|


                        Ab          Bb
  +H                     Q           Q
|------------------------------------------------|
|------------------------------------------------|
|-(5)--------------------------------------------|
|-(5)--------------------6-----------8-----------|
|-(3)--------------------6-----------8-----------|
|------------------------4-----------6-----------|
|
|  S   S  S  S  E  S  S  S  S  S  S  S  S  S  S
|------------------------------------------------|
|------------------------------------------------|
|-----------------16-17--------------------------|
|-----------15-17-------17-18--------------------|
|-15--17-18-------------------20-22-18-20--------|
|-----------------------------------------22-23--|


  Cm
   W
|--------------------------------------|
|--------------------------------------|
|--5-----------------------------------|
|--5-----------------------------------|
|--3-----------------------------------|
|--------------------------------------|
|
|  S  S  S  S  E  S  S  S  S  S  S  Q
|--------------------------------------|
|--------------------------------------|
|--------------------------------------|
|----------15-17----------15-17-18-17--|
|-15-17-18-------15-17-18--------------|
|--------------------------------------|


                        Ab          Db
  +H                     Q           Q
|------------------------------------------------||
|-----------------------------------------------o||
|-(5)--------------------------------6-----------||
|-(5)--------------------6-----------6-----------||
|-(3)--------------------6-----------4----------o||
|------------------------4-----------------------||
|
|  S   S  S  S  E  S  S  S  S  S  S  S  S  S  S
|------------------------------------------------||
|-----------------------------------------------o||
|-----------------16-17--------------------------||
|-----------15-17-------17-18--------------------||
|-15--17-18-------------------20-22-18-20-------o||
|-----------------------------------------22-23--||


  N.C.
  Gtr I
  PM--------------------------------------------------------------|
  S S S S S S S S S S S S S S S S   S S S S S S S S S S S S S S S S
|---------------------------------|----------------------------------|
|---------------------------------|----------------------------------|
|---------------------------------|-------------------------4-4-4-4--|
|---------------------------------|-3-3-3-3-4-4-4-4-5-5-5-5----------|
|-3-3-3-3-5-5-5-5-6-6-6-6-7-7-7-7-|----------------------------------|
|---------------------------------|----------------------------------|


  Gtr II
      |-----6------|  |------6-------|  |------6-------|
  Q   S  S  S  S S S  S  S  S  S  S  S  S  S  S  S  S  S
|----11-10-11-10-8-8-13-11-13-11-10-10-15-13-15-13-11-11-|
|--------------------------------------------------------|
|--------------------------------------------------------|
|--------------------------------------------------------|
|--------------------------------------------------------|
|--------------------------------------------------------|
|
| Gtr I
| ~~~~~~~~~~~~~~~~~~~~~~~~~~~~~~~~~~~~~~~~~~~~~~~~~~~~~~~~
| W
|--------------------------------------------------------|
|--------------------------------------------------------|
|-5------------------------------------------------------|
|--------------------------------------------------------|
|--------------------------------------------------------|
|--------------------------------------------------------|


   |-------6-------|  |------6-------|
   S   S  S  S  S  S  S  S  S  S  S  S  H
|-16--15-16-15-13-13-18-16-18-16-15-15-18b20========||
|---------------------------------------------------||
|---------------------------------------------------||
|---------------------------------------------------||
|---------------------------------------------------||
|---------------------------------------------------||
|
|~~~~~
| +H                                   +E     Q.
|---------------------------------------------------||
|---------------------------------------------------||
|-(5)----------------------------------(5)----------||
|---------------------------------------------------||
|---------------------------------------------x\----||
|---------------------------------------------------||


 Verse
  Cm                               Bb/C
   +H      H       W               W           W
|-(18)r---------|----------------|----------|--------|
|---------------|----------------|----------|--------|
|---------------|----------------|----------|--------|
|---------------|----------------|----------|--------|
|---------------|----------------|----------|--------|
|---------------|----------------|----------|--------|
|
|   W             +H..       S S   W          +W
|---------------|----------------|----------|--------|
|---------------|----------------|----------|--------|
|---5-----------|-(5)------------|-3--------|-(3)----|
|---5-----------|-(5)------------|-3--------|-(3)----|
|---3-----------|-(3)--------x-x-|----------|--------|
|---------------|----------------|----------|--------|


  Cm                           Bb/C
  W           W                W           H      S  S  S  S  S  S  S  S
|----------|-----------------|----------|--------15-----------------------|
|----------|-----------------|----------|-----------18-16-15--------------|
|----------|-----------------|----------|--------------------17-16--------|
|----------|-----------------|----------|--------------------------18-17--|
|----------|-----------------|----------|---------------------------------|
|----------|-----------------|----------|---------------------------------|
|
| W          +H     +E  Q.     W          +W
|----------|-----------------|----------|---------------------------------|
|----------|-----------------|----------|---------------------------------|
|-5--------|-(5)----(5)-5----|-3--------|-(3)-----------------------------|
|-5--------|-(5)----(5)-5----|-3--------|-(3)-----------------------------|
|-3--------|-(3)----(3)-3----|----------|---------------------------------|
|----------|-----------------|----------|---------------------------------|


  Cm                             Bb/C
   W           +W                W           W
|-----------|------------------|----------|--------|
|-----------|------------------|----------|--------|
|-17--------|-(17)-------------|----------|--------|
|-----------|------------------|----------|--------|
|-----------|------------------|----------|--------|
|-----------|------------------|----------|--------|
|
|  W           +H     +E  Q  E   W          +W
|-----------|------------------|----------|--------|
|-----------|------------------|----------|--------|
|--5--------|--(5)----(5)-5----|-3--------|-(3)----|
|--5--------|--(5)----(5)-5----|-3--------|-(3)----|
|--3--------|--(3)----(3)-3--x-|----------|--------|
|-----------|------------------|----------|--------|


  Cm                           Bb/C
  W           W                W           H      S  S  S  S  S  S  S  S
|----------|-----------------|----------|--------16-15--------------------||
|----------|-----------------|----------|--------------18-16-15-----------||
|----------|-----------------|----------|-----------------------17-16-----||
|----------|-----------------|----------|-----------------------------18--||
|----------|-----------------|----------|---------------------------------||
|----------|-----------------|----------|---------------------------------||
|
| W          +H     +E  Q.     W          +W
|----------|-----------------|----------|---------------------------------||
|----------|-----------------|----------|---------------------------------||
|-5--------|-(5)----(5)-5----|-3--------|-(3)-----------------------------||
|-5--------|-(5)----(5)-5----|-3--------|-(3)-----------------------------||
|-3--------|-(3)----(3)-3----|----------|---------------------------------||
|----------|-----------------|----------|---------------------------------||


 Pre-Chorus
  G
  Gtr I
      PM---------|      PM---------|      PM-------
   S  S  S  S  S  S  S  S  S  S  S  S  S  S  S  S
|-------------------------------------------------|
|-------------------------------------------------|
|-12----------------12----------------12----------|
|-12----------------12----------------12----------|
|-10-10-10-10-10-10-10-10-10-10-10-10-10-10-10-10-|
|-------------------------------------------------|
|
| Gtr IV
|  W
|-------------------------------------------------|
|-------------------------------------------------|
|-------------------------------------------------|
|-------------------------------------------------|
|-17----------------------------------------------|
|-15----------------------------------------------|


 ------|      PM---------|           PM|      PM---|
    S   S  S  S  S  S  S  S  S   S   S  S  S  S  S  S
|------------------------------------------------------|
|------------------------------------------------------|
|---------12----------------12h=13--------12-----------|
|---------12----------------12h=13--------12-----------|
|--10--10-10-10-10-10-10-10-10-(10)-10-10-10-10-10-10--|
|------------------------------------------------------|
|
|  +W
|------------------------------------------------------|
|------------------------------------------------------|
|------------------------------------------------------|
|------------------------------------------------------|
|-(17)-------------------------------------------------|
|-(15)-------------------------------------------------|


  Ab
      PM---------|      PM---------|      PM-------
   S  S  S  S  S  S  S  S  S  S  S  S  S  S  S  S
|-------------------------------------------------|
|-------------------------------------------------|
|-13----------------13----------------13----------|
|-13----------------13----------------13----------|
|-11-11-11-11-11-11-11-11-11-11-11-11-11-11-11-11-|
|-------------------------------------------------|
|
|  W
|-------------------------------------------------|
|-------------------------------------------------|
|-------------------------------------------------|
|-------------------------------------------------|
|-18----------------------------------------------|
|-16----------------------------------------------|


 ------|      PM---------|           PM|      PM---|
    S   S  S  S  S  S  S  S  S   S   S  S  S  S  S  S
|------------------------------------------------------|
|------------------------------------------------------|
|---------13----------------13h=15--------13-----------|
|---------13----------------13h=15--------13-----------|
|--11--11-11-11-11-11-11-11-11-(11)-11-11-11-11-11-11--|
|------------------------------------------------------|
|
|  +W
|------------------------------------------------------|
|------------------------------------------------------|
|------------------------------------------------------|
|------------------------------------------------------|
|-(18)-------------------------------------------------|
|-(16)-------------------------------------------------|


  G
  Gtr I
      PM---------|      PM---------|      PM-------
   S  S  S  S  S  S  S  S  S  S  S  S  S  S  S  S
|-------------------------------------------------|
|-------------------------------------------------|
|-12----------------12----------------12----------|
|-12----------------12----------------12----------|
|-10-10-10-10-10-10-10-10-10-10-10-10-10-10-10-10-|
|-------------------------------------------------|
|
| Gtr IV
|  W
|-------------------------------------------------|
|-------------------------------------------------|
|-------------------------------------------------|
|-------------------------------------------------|
|-17----------------------------------------------|
|-15----------------------------------------------|


 ------|      PM---------|           PM|      PM---|
    S   S  S  S  S  S  S  S  S   S   S  S  S  S  S  S
|------------------------------------------------------|
|------------------------------------------------------|
|---------12----------------12h=13--------12-----------|
|---------12----------------12h=13--------12-----------|
|--10--10-10-10-10-10-10-10-10-(10)-10-10-10-10-10-10--|
|------------------------------------------------------|
|
|  +W
|------------------------------------------------------|
|------------------------------------------------------|
|------------------------------------------------------|
|------------------------------------------------------|
|-(17)-------------------------------------------------|
|-(15)-------------------------------------------------|


  Ab                                                 Bb
       PM---------|      PM---------|
    S  S  S  S  S  S  S  S  S  S  S  S  Q      H     Q  Q
|------------------------------------------|---------------||
|------------------------------------------|---------------||
|-/13----------------13----------------13--|--13-----------||
|-/13----------------13----------------13--|--13-----3--3--||
|-/11-11-11-11-11-11-11-11-11-11-11-11-11--|--11-----1--1--||
|------------------------------------------|---------------||
|
|   W                                         +W
|------------------------------------------|---------------||
|------------------------------------------|---------------||
|------------------------------------------|---------------||
|------------------------------------------|---------------||
|--18--------------------------------------|-(18)----------||
|--16--------------------------------------|-(16)----------||


   Chorus
    Cm
    Gtr I
     W
||---------------------------------------|
||o--------------------------------------|
||---5-----------------------------------|
||---5-----------------------------------|
||o--3-----------------------------------|
||---------------------------------------|
|
|   Gtr V
|    S  S  S  S  E  S  S  S  S  S  S  Q
||---------------------------------------|
||o--------------------------------------|
||---------------------------------------|
||-----------15-17----------15-17-18-17--|
||o-15-17-18-------15-17-18--------------|
||---------------------------------------|


                        Ab          Bb
  +H                     Q           Q
|------------------------------------------------|
|------------------------------------------------|
|-(5)--------------------------------------------|
|-(5)--------------------6-----------8-----------|
|-(3)--------------------6-----------8-----------|
|------------------------4-----------6-----------|
|
|  S   S  S  S  E  S  S  S  S  S  S  S  S  S  S
|------------------------------------------------|
|------------------------------------------------|
|-----------------16-17--------------------------|
|-----------15-17-------17-18--------------------|
|-15--17-18-------------------20-22-18-20--------|
|-----------------------------------------22-23--|


  Cm
   W
|--------------------------------------|
|--------------------------------------|
|--5-----------------------------------|
|--5-----------------------------------|
|--3-----------------------------------|
|--------------------------------------|
|
|  S  S  S  S  E  S  S  S  S  S  S  Q
|--------------------------------------|
|--------------------------------------|
|--------------------------------------|
|----------15-17----------15-17-18-17--|
|-15-17-18-------15-17-18--------------|
|--------------------------------------|


                        Ab          Db
  +H                     Q           Q
|------------------------------------------------||
|-----------------------------------------------o||
|-(5)--------------------------------6-----------||
|-(5)--------------------6-----------6-----------||
|-(3)--------------------6-----------4----------o||
|------------------------4-----------------------||
|
|  S   S  S  S  E  S  S  S  S  S  S  S  S  S  S
|------------------------------------------------||
|-----------------------------------------------o||
|-----------------16-17--------------------------||
|-----------15-17-------17-18--------------------||
|-15--17-18-------------------20-22-18-20-------o||
|-----------------------------------------22-23--||


  N.C.
  Gtr I
  PM-------------------------------
  S S S S S S S S S S S S S S S S
|---------------------------------|
|---------------------------------|
|---------------------------------|
|---------------------------------|
|-3-3-3-3-5-5-5-5-6-6-6-6-7-7-7-7-|
|---------------------------------|


 -------------------------------|   ~~
  S S S S S S S S S S S S S S S S   H.      Q
|---------------------------------|--------------||
|---------------------------------|--------------||
|-------------------------4-4-4-4-|-5------------||
|-3-3-3-3-4-4-4-4-5-5-5-5---------|--------------||
|---------------------------------|---------x\---||
|---------------------------------|--------------||


 Verse
  Cm                           Bb/C
  Gtr I
  W          +H     +E  Q.     W          +W
|----------|-----------------|----------|--------|
|----------|-----------------|----------|--------|
|-5--------|-(5)----(5)-5----|-3--------|-(3)----|
|-5--------|-(5)----(5)-5----|-3--------|-(3)----|
|-3--------|-(3)----(3)-3----|----------|--------|
|----------|-----------------|----------|--------|


  Cm                           Bb/C
  Gtr II
  W           W                W           H      S  S  S  S  S  S  S  S
|----------|-----------------|----------|--------15-----------------------|
|----------|-----------------|----------|-----------18-16-15--------------|
|----------|-----------------|----------|--------------------17-16--------|
|----------|-----------------|----------|--------------------------18-17--|
|----------|-----------------|----------|---------------------------------|
|----------|-----------------|----------|---------------------------------|
|
| Gtr I
| W          +H     +E  Q.     W          +W
|----------|-----------------|----------|---------------------------------|
|----------|-----------------|----------|---------------------------------|
|-5--------|-(5)----(5)-5----|-3--------|-(3)-----------------------------|
|-5--------|-(5)----(5)-5----|-3--------|-(3)-----------------------------|
|-3--------|-(3)----(3)-3----|----------|---------------------------------|
|----------|-----------------|----------|---------------------------------|


  Cm                             Bb/C
   W           +W                W           W
|-----------|------------------|----------|--------|
|-----------|------------------|----------|--------|
|-17--------|-(17)-------------|----------|--------|
|-----------|------------------|----------|--------|
|-----------|------------------|----------|--------|
|-----------|------------------|----------|--------|
|
|  W           +H     +E  Q  E   W          +W
|-----------|------------------|----------|--------|
|-----------|------------------|----------|--------|
|--5--------|--(5)----(5)-5----|-3--------|-(3)----|
|--5--------|--(5)----(5)-5----|-3--------|-(3)----|
|--3--------|--(3)----(3)-3--x-|----------|--------|
|-----------|------------------|----------|--------|


  Cm                           Bb/C
  W           W                W           H      S  S  S  S  S  S  S  S
|----------|-----------------|----------|--------16-15--------------------||
|----------|-----------------|----------|--------------18-16-15-----------||
|----------|-----------------|----------|-----------------------17-16-----||
|----------|-----------------|----------|-----------------------------18--||
|----------|-----------------|----------|---------------------------------||
|----------|-----------------|----------|---------------------------------||
|
| W          +H     +E  Q.     W          +W
|----------|-----------------|----------|---------------------------------||
|----------|-----------------|----------|---------------------------------||
|-5--------|-(5)----(5)-5----|-3--------|-(3)-----------------------------||
|-5--------|-(5)----(5)-5----|-3--------|-(3)-----------------------------||
|-3--------|-(3)----(3)-3----|----------|---------------------------------||
|----------|-----------------|----------|---------------------------------||


 Pre-Chorus
  G
  Gtr I
      PM---------|      PM---------|      PM-------
   S  S  S  S  S  S  S  S  S  S  S  S  S  S  S  S
|-------------------------------------------------|
|-------------------------------------------------|
|-12----------------12----------------12----------|
|-12----------------12----------------12----------|
|-10-10-10-10-10-10-10-10-10-10-10-10-10-10-10-10-|
|-------------------------------------------------|
|
| Gtr IV
|  W
|-------------------------------------------------|
|-------------------------------------------------|
|-------------------------------------------------|
|-------------------------------------------------|
|-17----------------------------------------------|
|-15----------------------------------------------|


 ------|      PM---------|           PM|      PM---|
    S   S  S  S  S  S  S  S  S   S   S  S  S  S  S  S
|------------------------------------------------------|
|------------------------------------------------------|
|---------12----------------12h=13--------12-----------|
|---------12----------------12h=13--------12-----------|
|--10--10-10-10-10-10-10-10-10-(10)-10-10-10-10-10-10--|
|------------------------------------------------------|
|
|  +W
|------------------------------------------------------|
|------------------------------------------------------|
|------------------------------------------------------|
|------------------------------------------------------|
|-(17)-------------------------------------------------|
|-(15)-------------------------------------------------|


  Ab
      PM---------|      PM---------|      PM-------
   S  S  S  S  S  S  S  S  S  S  S  S  S  S  S  S
|-------------------------------------------------|
|-------------------------------------------------|
|-13----------------13----------------13----------|
|-13----------------13----------------13----------|
|-11-11-11-11-11-11-11-11-11-11-11-11-11-11-11-11-|
|-------------------------------------------------|
|
|  W
|-------------------------------------------------|
|-------------------------------------------------|
|-------------------------------------------------|
|-------------------------------------------------|
|-18----------------------------------------------|
|-16----------------------------------------------|


 ------|      PM---------|           PM|      PM---|
    S   S  S  S  S  S  S  S  S   S   S  S  S  S  S  S
|------------------------------------------------------|
|------------------------------------------------------|
|---------13----------------13h=15--------13-----------|
|---------13----------------13h=15--------13-----------|
|--11--11-11-11-11-11-11-11-11-(11)-11-11-11-11-11-11--|
|------------------------------------------------------|
|
|  +W
|------------------------------------------------------|
|------------------------------------------------------|
|------------------------------------------------------|
|------------------------------------------------------|
|-(18)-------------------------------------------------|
|-(16)-------------------------------------------------|


  G
  Gtr I
      PM---------|      PM---------|      PM-------
   S  S  S  S  S  S  S  S  S  S  S  S  S  S  S  S
|-------------------------------------------------|
|-------------------------------------------------|
|-12----------------12----------------12----------|
|-12----------------12----------------12----------|
|-10-10-10-10-10-10-10-10-10-10-10-10-10-10-10-10-|
|-------------------------------------------------|
|
| Gtr IV
|  W
|-------------------------------------------------|
|-------------------------------------------------|
|-------------------------------------------------|
|-------------------------------------------------|
|-17----------------------------------------------|
|-15----------------------------------------------|


 ------|      PM---------|           PM|      PM---|
    S   S  S  S  S  S  S  S  S   S   S  S  S  S  S  S
|------------------------------------------------------|
|------------------------------------------------------|
|---------12----------------12h=13--------12-----------|
|---------12----------------12h=13--------12-----------|
|--10--10-10-10-10-10-10-10-10-(10)-10-10-10-10-10-10--|
|------------------------------------------------------|
|
|  +W
|------------------------------------------------------|
|------------------------------------------------------|
|------------------------------------------------------|
|------------------------------------------------------|
|-(17)-------------------------------------------------|
|-(15)-------------------------------------------------|


  Ab                                                 Bb
       PM---------|      PM---------|
    S  S  S  S  S  S  S  S  S  S  S  S  Q      H     Q  Q
|------------------------------------------|---------------||
|------------------------------------------|---------------||
|-/13----------------13----------------13--|--13-----------||
|-/13----------------13----------------13--|--13-----3--3--||
|-/11-11-11-11-11-11-11-11-11-11-11-11-11--|--11-----1--1--||
|------------------------------------------|---------------||
|
|   W                                         +W
|------------------------------------------|---------------||
|------------------------------------------|---------------||
|------------------------------------------|---------------||
|------------------------------------------|---------------||
|--18--------------------------------------|-(18)----------||
|--16--------------------------------------|-(16)----------||


   Chorus
    Cm
    Gtr I
     W
||---------------------------------------|
||o--------------------------------------|
||---5-----------------------------------|
||---5-----------------------------------|
||o--3-----------------------------------|
||---------------------------------------|
|
|   Gtr V
|    S  S  S  S  E  S  S  S  S  S  S  Q
||---------------------------------------|
||o--------------------------------------|
||---------------------------------------|
||-----------15-17----------15-17-18-17--|
||o-15-17-18-------15-17-18--------------|
||---------------------------------------|


                        Ab          Bb
  +H                     Q           Q
|------------------------------------------------|
|------------------------------------------------|
|-(5)--------------------------------------------|
|-(5)--------------------6-----------8-----------|
|-(3)--------------------6-----------8-----------|
|------------------------4-----------6-----------|
|
|  S   S  S  S  E  S  S  S  S  S  S  S  S  S  S
|------------------------------------------------|
|------------------------------------------------|
|-----------------16-17--------------------------|
|-----------15-17-------17-18--------------------|
|-15--17-18-------------------20-22-18-20--------|
|-----------------------------------------22-23--|


  Cm
   W
|--------------------------------------|
|--------------------------------------|
|--5-----------------------------------|
|--5-----------------------------------|
|--3-----------------------------------|
|--------------------------------------|
|
|  S  S  S  S  E  S  S  S  S  S  S  Q
|--------------------------------------|
|--------------------------------------|
|--------------------------------------|
|----------15-17----------15-17-18-17--|
|-15-17-18-------15-17-18--------------|
|--------------------------------------|

[ Tab from: http://www.guitaretab.com/s/stratovarius/43794.html ]
                        Ab          Db
  +H                     Q           Q
|------------------------------------------------||
|-----------------------------------------------o||
|-(5)--------------------------------6-----------||
|-(5)--------------------6-----------6-----------||
|-(3)--------------------6-----------4----------o||
|------------------------4-----------------------||
|
|  S   S  S  S  E  S  S  S  S  S  S  S  S  S  S
|------------------------------------------------||
|-----------------------------------------------o||
|-----------------16-17--------------------------||
|-----------15-17-------17-18--------------------||
|-15--17-18-------------------20-22-18-20-------o||
|-----------------------------------------22-23--||


  N.C.
  Gtr I
  PM-------------------------------
  S S S S S S S S S S S S S S S S
|---------------------------------|
|---------------------------------|
|---------------------------------|
|---------------------------------|
|-3-3-3-3-5-5-5-5-6-6-6-6-7-7-7-7-|
|---------------------------------|


 -------------------------------|   ~~~
  S S S S S S S S S S S S S S S S   H..       +E
|---------------------------------|-----------------||
|---------------------------------|-----------------||
|-------------------------4-4-4-4-|-5---------(5)\--||
|-3-3-3-3-4-4-4-4-5-5-5-5---------|-----------------||
|---------------------------------|-----------------||
|---------------------------------|-----------------||


 Interlude
  Wx8
|--------|
|--------|
|--------|
|--------|
|--------|
|--------|


  N.C.
  Gtr I
   |------6-------|  |------6-------|  |------6-------|  |------6-------|
   S  S  S  S  S  S  S  S  S  S  S  S  S  S  S  S  S  S  S  S  S  S  S  S
|-16-15-13-16-15-13-------------------------------------------------------|
|-------------------16-15-13-16-15-13-15-13----15-13----------------------|
|-------------------------------------------15-------15-15-13-12-15-13-12-|
|-------------------------------------------------------------------------|
|-------------------------------------------------------------------------|
|-------------------------------------------------------------------------|


   |------6-------|  |------6-------|  |------6------|  |-----6------|
   S  S  S  S  S  S  S  S  S  S  S  S  S  S  S  S  S S  S  S S  S  S S
|----------------------------------------------------------------------|
|----------------------------------------------------------------------|
|-13-12-10-13-12-10----------------------------------------------------|
|-------------------13-12-10-13-12-10-13-12-10-------------------------|
|----------------------------------------------11-10-8-11-10-8-11-10-8-|
|----------------------------------------------------------------------|


  N.C.
  Gtr II
         |------6-------|  |-----5-----|     |-----5------|
   H     S  S  S  S  S  S  S  S  S  S  S     S   S  S  S  S  H         +Q
|----------------------------------------|------------11-13-15b16=====(15)--||
|-------------------------------12-13-15-|--12--13-15-----------------------||
|----------------12-13-15-13-15----------|----------------------------------||
|-------12-13-15-------------------------|----------------------------------||
|----------------------------------------|----------------------------------||
|----------------------------------------|----------------------------------||
|
| Gtr I
|  W                                        +W
|----------------------------------------|----------------------------------||
|----------------------------------------|----------------------------------||
|----------------------------------------|----------------------------------||
|----------------------------------------|----------------------------------||
|-10-------------------------------------|-(10)-----------------------------||
|----------------------------------------|----------------------------------||


 Guitar Solo
  N.C.
                         |---------------3----------------|
   +Q         +Q         Q      E        +E     E        +E
|-(15)r======(15)-------15-----15pb16r==(15)---15pb16r==(15)---|
|--------------------------------------------------------------|
|--------------------------------------------------------------|
|--------------------------------------------------------------|
|--------------------------------------------------------------|
|--------------------------------------------------------------|
|
|   PM----------------------------------------------------------
|   S  S S S   S  S S S  S S S        S   S  S        S      S
|--------------------------------------------------------------|
|--------------------------------------------------------------|
|--------------------------------------------------------------|
|--------------------------------------------------------------|
|---3--3-3-3---3--3-3-3--3-3-3--------3---3--3--------3------3-|
|--------------------------------------------------------------|


   |--------------------3--------------------|
   E        +E     E        +E     E        +E         +Q         +Q
|-15pb16r==(15)---15pb16r==(15)---15pb16r==(15)b16====(15)r======(15)------|
|--------------------------------------------------------------------------|
|--------------------------------------------------------------------------|
|--------------------------------------------------------------------------|
|--------------------------------------------------------------------------|
|--------------------------------------------------------------------------|
|
|---------------------------------------------------|
|  S     S      S        S   S  S        S          S   S  S S S   S S S S
|--------------------------------------------------------------------------|
|--------------------------------------------------------------------------|
|--------------------------------------------------------------------------|
|--------------------------------------------------------------3---5h6-5h6-|
|--3-----3------3--------3---3--3--------3----------3---3h=5h6-------------|
|--------------------------------------------------------------------------|


   |--------6---------|  |--------6---------|  |--------6---------|  |--------6---------|
   S  S    S  S  S    S  S  S    S  S  S    S  S  S    S  S  S    S  S  S    S  S  S    S
|-16p15p==13------------------------------------------------------------------------------|
|------------16p15p==13----15p==13------------16p15p==13-15p13----------------------------|
|-----------------------15---------15p13p==12--------------------15-13p12------15p13p==12-|
|---------------------------------------------------------------------------15------------|
|-----------------------------------------------------------------------------------------|
|-----------------------------------------------------------------------------------------|
|
|  PM--------------------------------------------------------------------------------------
|  S    S     S    S     S    S     S    S     S    S     S    S     S    S     S    S
|-----------------------------------------------------------------------------------------|
|-----------------------------------------------------------------------------------------|
|-----------------------------------------------------------------------------------------|
|-----------------------------------------------------------------------------------------|
|-----------------------------------------------------------------------------------------|
|--3----3-----3----3-----3----3-----3----3-----3----3-----3----3-----3----3-----3----3----|


                       ~~~~
   |------6------|
   S  S    S  S  E    +H.
|------------------------------------------------|
|------------------------------------------------|
|------------------------------------------------|
|-15-13---12-------------------------------------|
|------------15-14---(14)------------------------|
|------------------------------------------------|
|
|-----------------------------|
|  S    S     S    S   S  S S S S S S S S S S S
|------------------------------------------------|
|------------------------------------------------|
|------------------------------------------------|
|------------------------------------------------|
|-------------------------------------3-5h6-5h6--|
|--3----3-----3----3---3--3-3-3-3h4h7------------|


   |--------6---------|  |--------6---------|  |--------6---------|  |--------6---------|
   S  S    S  S  S    S  S  S    S  S  S    S  S  S    S  S  S    S  S  S    S  S  S    S
|-----------------------------------------------------------------------------------------|
|--------------------------------------------------------------------------------------13-|
|------------------------------------------12-13-12--------------12-13-15---12-13-15------|
|-13-12--------------12-13-15---12-13-15--------------15-13-15----------------------------|
|---------15-14-15------------------------------------------------------------------------|
|-----------------------------------------------------------------------------------------|
|
|  PM--------------------------------------------------------------------------------------
|  S    S     S    S     S    S     S    S     S    S     S    S     S    S     S    S
|-----------------------------------------------------------------------------------------|
|-----------------------------------------------------------------------------------------|
|-----------------------------------------------------------------------------------------|
|-----------------------------------------------------------------------------------------|
|--3----3-----3----3-----3----3-----3----3-----3----3-----3----3-----3----3-----3----3----|
|-----------------------------------------------------------------------------------------|


   |--------6---------|  |--------6---------|  |--------6---------|  |--------6---------|
   S  S    S  S  S    S  S  S    S  S  S    S  S  S    S  S  S    S  S  S    S  S  S    S
|------------------------------------------------13---15-13-15---13--------------------13----|
|--------------------------13---15-16-13---15-16--------------------16-15---13-15-16---------|
|-15-13---12----12---13-15-------------------------------------------------------------------|
|------------15------------------------------------------------------------------------------|
|--------------------------------------------------------------------------------------------|
|--------------------------------------------------------------------------------------------|
|
|----------------------------------------|
|  S    S     S    S     S    S     S    S     S    S     S    S     S    S     S    S
|--------------------------------------------------------------------------------------------|
|--------------------------------------------------------------------------------------------|
|--------------------------------------------------------------------------------------------|
|--------------------------------------------------------------3-----5h===6-----5h===6-------|
|--3----3-----3----3-----3----3-----3----3-----3h===5h====6----------------------------------|
|--------------------------------------------------------------------------------------------|


   |--------6---------|  |--------6---------|  |--------6---------|  |--------5--------|
   S  S    S  S  S    S  S  S    S  S  S    S  S  S    S  S  S    S  S  S    S    S    S
|-15-16---15-13------------13---15-16-18---16-15------------15---16-18-20---18---16------|
|---------------16---15-16-----------------------18---16-18---------------------------20-|
|----------------------------------------------------------------------------------------|
|----------------------------------------------------------------------------------------|
|----------------------------------------------------------------------------------------|
|----------------------------------------------------------------------------------------|
|
|  PM-------------------------------------------------------------------------------------
|  S    S     S    S     S    S     S    S     S    S     S    S     S    S    S    S
|----------------------------------------------------------------------------------------|
|----------------------------------------------------------------------------------------|
|----------------------------------------------------------------------------------------|
|----------------------------------------------------------------------------------------|
|----------------------------------------------------------------------------------------|
|--3----3-----3----3-----3----3-----3----3-----3----3-----3----3-----3----3----3----3----|


   |--------5--------|
   S  S    S    S    S  H                    +Q
|---------16---18---20-22b23================(22)r======|
|-18-20------------------------------------------------|
|------------------------------------------------------|
|------------------------------------------------------|
|------------------------------------------------------|
|------------------------------------------------------|
|
|---------------------------------|
|  S    S    S    S     S     S S S S S S S   S  S S S
|------------------------------------------------------|
|------------------------------------------------------|
|------------------------------------------------------|
|------------------------------------------------------|
|-----------------------------------------3---5h=6-5h6-|
|--3----3----3----3-----3-----3-3-3-3h4h7--------------|


  Gtr II
                ~~~~~~~~~~~~~~~~~~~~~~~~~~~~~~~~~~~~
   +Q           H.
|-(22)---------20----------------------------------|
|--------------------------------------------------|
|--------------------------------------------------|
|--------------------------------------------------|
|--------------------------------------------------|
|--------------------------------------------------|
|
| Gtr I
|   S  S  S  S  S  S  S  S  S  S  S  S  S  S  S  S
|--15p11----11-13p11----11-15p11-16p11-15p11-13p11-|
|--------13----------13----------------------------|
|--------------------------------------------------|
|--------------------------------------------------|
|--------------------------------------------------|
|--------------------------------------------------|
|
| Gtr I
|   PM----------------------------------------------
|   S  S  S  S  S  S  S  S  S  S  S  S  S  S  S  S
|--------------------------------------------------|
|--------------------------------------------------|
|--------------------------------------------------|
|--------------------------------------------------|
|---3--3--3--3--3--3--3--3--3--3--3--3--3--3--3--3-|
|--------------------------------------------------|


 ~~~~~~
   +W
|-(20)----------------------------------------------|
|---------------------------------------------------|
|---------------------------------------------------|
|---------------------------------------------------|
|---------------------------------------------------|
|---------------------------------------------------|
|
|   S  S  S  S  S  S  S  S  S  S  S  S  S  S  S  S
|--15p11----11-13p11----11-15p11-16p11-15p11-13p11--|
|--------13----------13-----------------------------|
|---------------------------------------------------|
|---------------------------------------------------|
|---------------------------------------------------|
|---------------------------------------------------|
|
|-----------------------|
|   S  S  S  S  S  S  S  S  S  S  S  S  S  S  S  S
|---------------------------------------------------|
|---------------------------------------------------|
|---------------------------------------------------|
|------------------------------------3--5h=6--5h=6--|
|---3--3--3--3--3--3--3--3--3h=5h=6-----------------|
|---------------------------------------------------|


  Gtr II
   S  S  S  S  S  S  S  S  S  S  S  S  S  S  S  S
|-13p10----10-13p10----10-13p10-16p10-13p10-16p10-|
|-------12----------12----------------------------|
|-------------------------------------------------|
|-------------------------------------------------|
|-------------------------------------------------|
|-------------------------------------------------|
|
| Gtr I
|  PM----------------------------------------------
|  S  S  S  S  S  S  S  S  S  S  S  S  S  S  S  S
|-------------------------------------------------|
|-------------------------------------------------|
|-------------------------------------------------|
|-------------------------------------------------|
|-------------------------------------------------|
|--3--3--3--3--3--3--3--3--3--3--3--3--3--3--3--3-|


   S  S  S  S  S  S  S  S  S  S  S  S  S  S  S  S
|-13p10----10-13p10----10-13p10-16p10-13p10-16p10--|
|-------12----------12-----------------------------|
|--------------------------------------------------|
|--------------------------------------------------|
|--------------------------------------------------|
|--------------------------------------------------|
|
|----------------------|
|  S  S  S  S  S  S  S  S  S  S  S  S  S  S  S  S
|--------------------------------------------------|
|--------------------------------------------------|
|--------------------------------------------------|
|--------------------------------------------------|
|-----------------------------------3--5h=6--5h=6--|
|--3--3--3--3--3--3--3--3--3h=4h=7-----------------|


   S  S  S  S  S  S  S  S  S  S  S  S  S  S  S  S
|-15p11----11-13p11----11-15p11-16p11-15p11-13p11-|
|-------13----------13----------------------------|
|-------------------------------------------------|
|-------------------------------------------------|
|-------------------------------------------------|
|-------------------------------------------------|
|
|  PM----------------------------------------------
|  S  S  S  S  S  S  S  S  S  S  S  S  S  S  S  S
|-------------------------------------------------|
|-------------------------------------------------|
|-------------------------------------------------|
|-------------------------------------------------|
|--3--3--3--3--3--3--3--3--3--3--3--3--3--3--3--3-|
|-------------------------------------------------|


   S  S  S  S  S  S  S  S  S  S  S  S  S  S  S  S
|-15p11----11-13p11----11-15p11-16p11-15p11-13p11--|
|-------13----------13-----------------------------|
|--------------------------------------------------|
|--------------------------------------------------|
|--------------------------------------------------|
|--------------------------------------------------|
|
|----------------------|
|  S  S  S  S  S  S  S  S  S  S  S  S  S  S  S  S
|--------------------------------------------------|
|--------------------------------------------------|
|--------------------------------------------------|
|-----------------------------------3--5h=6--5h=6--|
|--3--3--3--3--3--3--3--3--3h=5h=6-----------------|
|--------------------------------------------------|


   S  S  S  S  S  S  S  S  S  S  S  S  S  S  S  S
|-13p10----10-13p10----10-13p10-16p10-13p10-16p10-|
|-------12----------12----------------------------|
|-------------------------------------------------|
|-------------------------------------------------|
|-------------------------------------------------|
|-------------------------------------------------|
|
|  PM----------------------------------------------
|  S  S  S  S  S  S  S  S  S  S  S  S  S  S  S  S
|-------------------------------------------------|
|-------------------------------------------------|
|-------------------------------------------------|
|-------------------------------------------------|
|-------------------------------------------------|
|--3--3--3--3--3--3--3--3--3--3--3--3--3--3--3--3-|


   S  S  S  S  S  S  S  S  S  S  S  S  S  S  S  S
|-13p10----10-13p10----10-13p10-16p10-13p10-16p10--||
|-------12----------12-----------------------------||
|--------------------------------------------------||
|--------------------------------------------------||
|--------------------------------------------------||
|--------------------------------------------------||
|
|----------------------|
|  S  S  S  S  S  S  S  S  S  S  S  S  S  S  S  S
|--------------------------------------------------||
|--------------------------------------------------||
|--------------------------------------------------||
|--------------------------------------------------||
|-----------------------------------3--5h=6--5h=6--||
|--3--3--3--3--3--3--3--3--3h=4h=7-----------------||


  Ab                 Bb             G                  Cm
  Gtr I
                                                        ~~
   H..        S  S    H.       Q     H..        S  S    H     Q   Q
|------------------|--------------|------------------|----------------|
|------------------|--------------|------------13-15-|-16----16--15---|
|-13---------12-13-|-15-------13--|-12---------------|--5-----5-------|
|--6----------5--6-|--8--------6--|--5----------6--8-|------------8---|
|------------------|--------------|------------------|--3-----3-------|
|--4----------3--4-|--6--------4--|--3----------4--6-|------------6---|
|
| Gtr IV
|  W                  W              W                  W
|------------------|--------------|------------------|----------------|
|------------------|--------------|-15---------------|----------------|
|-17---------------|-19-----------|-16---------------|-17-------------|
|-18---------------|-20-----------|-17---------------|-17-------------|
|-18---------------|-20-----------|------------------|-18-------------|
|------------------|--------------|------------------|----------------|


  Ab              Fm          G
  Gtr II
   W               W           H     S  S  S  S  S  S  S  S
|---------------|-----------|-------16p15p13----13----------|
|---------------|-----------|----------------16----16p15p13-|
|---------------|-----------|-------------------------------|
|---------------|-----------|-------------------------------|
|---------------|-----------|-------------------------------|
|---------------|-----------|-------------------------------|
|
| Gtr I
|  ~~              ~~
|  H     Q   Q     W           W
|---------------|-----------|-------------------------------|
|-13----13------|-----------|-------------------------------|
|-----------15--|-13--------|-------------------------------|
|--6-----6---5--|-----------|--5----------------------------|
|---------------|--8--------|-------------------------------|
|--4-----4---3--|--1--------|--3----------------------------|
|
| Gtr IV
|  W               W           W
|---------------|-----------|-------------------------------|
|---------------|-----------|-------------------------------|
|-17------------|-17--------|-16----------------------------|
|-18------------|-18--------|-17----------------------------|
|-18------------|-20--------|-17----------------------------|
|---------------|-----------|-------------------------------|


                 |-----5-----|  |-----5-----|  |--3--|
    S   S  S  S  S  S  S  S  S  S  S  S  S  S  S  S  Q
|-------------------------------------------------------|
|--15p=13-------16p15p13-15p13--------------------------|
|---------15-13----------------15p13p12-----------------|
|---------------------------------------15p13p12--------|
|------------------------------------------------15-14--|
|-------------------------------------------------------|
|
|  +W
|-------------------------------------------------------|
|-------------------------------------------------------|
|-------------------------------------------------------|
|--(5)--------------------------------------------------|
|-------------------------------------------------------|
|--(3)--------------------------------------------------|
|
|  +W
|-------------------------------------------------------|
|-------------------------------------------------------|
|-(16)--------------------------------------------------|
|-(17)--------------------------------------------------|
|-(17)--------------------------------------------------|
|-------------------------------------------------------|


  Ab                  Bb
  Gtr I
    H..        S  S    H.       Q
|-------------------|--------------|
|-------------------|--------------|
|-/13---------12-13-|-15-------13--|
|---6----------5--6-|--8--------6--|
|-------------------|--------------|
|---4----------3--4-|--6--------4--|
|
| Gtr IV
|   W                  W
|-------------------|--------------|
|-------------------|--------------|
|--17---------------|-19-----------|
|--18---------------|-20-----------|
|--18---------------|-20-----------|
|-------------------|--------------|


  G                  Cm              Ab
                      ~~              ~~
   H..        S  S    H     Q   Q     H     Q   Q
|------------------|---------------|---------------|
|------------13-15-|-16----16--15--|-13----13------|
|-12---------------|--5-----5------|-----------15--|
|--5----------6--8-|------------8--|--6-----6---5--|
|------------------|--3-----3------|---------------|
|--3----------4--6-|------------6--|--4-----4---3--|
|
|  W                  W               W
|------------------|---------------|---------------|
|-15---------------|---------------|---------------|
|-16---------------|-17------------|-17------------|
|-17---------------|-17------------|-18------------|
|------------------|-18------------|-18------------|
|------------------|---------------|---------------|


  Fm          F#                   G
               |--3--|  |--3--|
   W           Q  Q  Q  Q  Q  Q      W           +W            +W
|-----------|-------------14-17s==|=15--------|-(15)--------|-(15)----||
|-----------|-------13-16--7-10s==|==8--------|--(8)--------|--(8)----||
|-13--------|-11-14--5--8---------|-----------|-------------|---------||
|--3--------|--4--7--------4--7s==|==5--------|--(5)--------|--(5)----||
|-----------|--------3--6---------|-----------|-------------|---------||
|--1--------|--2--5---------------|-----------|-------------|---------||
|
|  W           W                     W           +W            +W
|-----------|---------------------|-----------|-------------|---------||
|-----------|---------------------|-----------|-------------|---------||
|-17--------|-14------------------|-16--------|-(16)--------|-(16)----||
|-18--------|-16------------------|-17--------|-(17)--------|-(17)----||
|-20--------|-18------------------|-17--------|-(17)--------|-(17)----||
|-----------|-20------------------|-----------|-------------|---------||


   Outro
    Cmadd9                             G/B
    Gtr III
    Q  E E E E E E   E E E E E E E E   Q  E E E E E E   W
||-----------------|---------3-------|----------------|------|
||o----3-----3-----|-3h4-------4p3---|----3-----3-----|-3----|
||-------5-----5---|-----5---------5-|------0-----0---|------|
||---------5-----5-|-------5---------|--------0-----0-|------|
||o-3--------------|-----------------|-2--------------|------|
||-----------------|-----------------|----------------|------|


  Cmadd9                             G/B
  Q  E E E E E E   E E E E E E E E   Q  E E E E E E   W
|----------------|---------3-------|----------------|------||
|----3-----3-----|-3h4-------4p3---|----3-----3-----|-3----||
|------5-----5---|-----5---------5-|------0-----0---|------||
|--------5-----5-|-------5---------|--------0-----0-|------||
|-3--------------|-----------------|-2--------------|------||
|----------------|-----------------|----------------|------||


  Fm                              Dbmaj7
  Q  E E E E E E   Q  Q  E E Q    Q  E E E E E E   Q  Q  E E Q
|----1-----1-----|-1--3--4------|----1-----1-----|-1--3--3-------|
|------1-----1---|---------1----|------1-----1---|---------1-----|
|--------1-----1-|-----------1--|--------1-----1-|-----------1---|
|-3--------------|--------------|----------------|---------------|
|----------------|--------------|-4--------------|---------------|
|----------------|--------------|----------------|---------------|


  G/B
  Q  E E E E E E   Q  E E E E E E   Q  E E E E E E   W
|----3-----3-----|-3--------------|----3-----3-----|-3-----||
|------3-----3---|----3---------3-|------3-----3---|-3----o||
|--------0-----0-|------0-----0---|--------0-----0-|-------||
|----------------|----------------|----------------|-------||
|-2--------------|--------2h3-----|-2--------------|------o||
|----------------|----------------|----------------|-------||


    Cm
    Gtr III
     Q  E E E E E E    H        E E   Q
||------------------|-----------3--------|
||o-----4-----4-----|--4----------4------|
||--------5-----5---|-----------------5--|
||----------5-----5-|--------------------|
||o--3--------------|--------------------|
||------------------|--------------------|
|
|   Gtr I
|    W                +Q     Q  Q     Q
||------------------|--------------------|
||o-----------------|--------------------|
||--/5--------------|-(5)---/7--8---/12--|
||------------------|--------------------|
||o-----------------|--------------------|
||------------------|--------------------|
|
|   Gtr II
|    W                +Q     Q  Q     Q
||------------------|--------------------|
||o-----------------|-----------8----11--|
||--/8--------------|-(8)--/10-----------|
||------------------|--------------------|
||o-----------------|--------------------|
||------------------|--------------------|


  Fm
   Q  E E E E E E     H          E E  Q
|-----------------|--------------1--------|
|-----1-----1-----|----------------1------|
|-------1-----1---|---1---------------1---|
|--3------3-----3-|-----------------------|
|-----------------|-----------------------|
|-----------------|-----------------------|
|
|  ~~~~~~~~~~~~~~~~~~~~~~
|  W                 +Q   Q      Q    Q
|-----------------|-----------------------|
|-----------------|-----------------------|
|-10--------------|-(10)--8------7--------|
|-----------------|------------------10---|
|-----------------|-----------------------|
|-----------------|-----------------------|
|
|  ~~~~~~~~~~~~~~~~~~~~~~
|  W                 +Q   E S S  Q    Q
|-----------------|-----------------------|
|--9--------------|--(9)--8-9p8-----------|
|-----------------|-------------10----8---|
|-----------------|-----------------------|
|-----------------|-----------------------|
|-----------------|-----------------------|


  Bb                                    Cm                         Cm/Bb
  Q  E E E E E E    H        E E   Q    Q  E E E E E E    H         E E Q
|----------------|-----------6--------|----------------|------------3-------|
|----6-----6-----|--6----------6------|----4-----4-----|--4-----------4-----|
|------7-----7---|-----------------7--|------5-----5---|----------------5---|
|--------8-----8-|--------------------|--------5-----5-|--------------------|
|----------------|--------------------|-3--------------|--------------------|
|-6--------------|--------------------|----------------|--------------------|
|
| W                +Q    Q   Q     Q    W                +Q     Q   Q   Q
|----------------|--------------------|----------------|--------------------|
|----------------|--------------------|----------------|--------------------|
|----------------|-----------7---/10--|-8--------------|-(8)----------------|
|-8--------------|-(8)--10------------|----------------|------/12--10---8---|
|----------------|--------------------|----------------|--------------------|
|----------------|--------------------|----------------|--------------------|
|
| W                +Q    Q   Q     Q    W                +Q     Q   Q   Q
|----------------|--------------------|----------------|--------------------|
|----------------|-----------------9--|-8--------------|-(8)----------------|
|-7--------------|-(7)---8--10--------|----------------|-------10---8---7---|
|----------------|--------------------|----------------|--------------------|
|----------------|--------------------|----------------|--------------------|
|----------------|--------------------|----------------|--------------------|


  Ab                                 A
   Q  E E E E E E     H     E E Q     Q  E E E E E E     Q   Q  Q  Q
|-----------------|---------4------|-----------------|---8-------------|
|-----4-----4-----|---4-------4----|-----7-----7-----|-------7--7------|
|-------5-----5---|-------------5--|-------8-----8---|-----------------|
|---------6-----6-|----------------|--7------7-----7-|-------------7---|
|-----------------|----------------|-----------------|-----------------|
|--4--------------|----------------|-----------------|-----------------|
|
|  W                 +W               W                 +W
|-----------------|----------------|-----------------|-----------------|
|-----------------|----------------|-----------------|-----------------|
|-----------------|----------------|-----------------|-----------------|
|--6--------------|--(6)-----------|--7--------------|--(7)------------|
|-----------------|----------------|-----------------|-----------------|
|-----------------|----------------|-----------------|-----------------|
|
|  W                 +W               W                 +W
|-----------------|----------------|-----------------|-----------------|
|-----------------|----------------|-----------------|-----------------|
|-----------------|----------------|-----------------|-----------------|
|-10--------------|-(10)-----------|-10--------------|-(10)------------|
|-----------------|----------------|-----------------|-----------------|
|-----------------|----------------|-----------------|-----------------|


  G
    Q  E E E E E E     Q   Q   Q      Q
|------------------|-------------------------|
|------3-----3-----|---3--------------3------|
|--------4-----4---|-----------4-------------|
|----------5-----5-|-------5-----------------|
|------------------|-------------------------|
|---3--------------|-------------------------|
|
|   W                 +H       H
|------------------|-------------------------|
|-/12--------------|-(12)-----12b13----------|
|------------------|-------------------------|
|------------------|-------------------------|
|------------------|-------------------------|
|------------------|-------------------------|
|
|   W                 +H       Q.        +E
|------------------|-------------------------|
|------------------|-------------------------|
|-/12--------------|-(12)-----12b13=====(12)r|
|------------------|-------------------------|
|------------------|-------------------------|
|------------------|-------------------------|


    Q    E  E E E E E     H     Q    Q
|---------------------|---------------------||
|--------3------3-----|---3-----4----3-----o||
|-----------4-----4---|---------------------||
|-------------5-----5-|---------------------||
|---------------------|--------------------o||
|---3-----------------|---------------------||
|
|   ~~~~~~~~~~~~~~~~~~~~~~~~~
|   W                    +H.        +Q
|---------------------|---------------------||
|--12-----------------|-(12)-------(12)\---o||
|---------------------|---------------------||
|---------------------|---------------------||
|---------------------|--------------------o||
|---------------------|---------------------||
|
|        ~~~~~~~~~~~~~~~~~~~~
|  +Q    H.              +H.        +Q
|---------------------|---------------------||
|---------------------|--------------------o||
|-(12)--12------------|-(12)-------(12)\----||
|---------------------|---------------------||
|---------------------|--------------------o||
|---------------------|---------------------||



Duration Legend
---------------
W - whole; H - half; Q - quarter; E - 8th; S - 16th; T - 32nd; X - 64th; a - acciaccatura
+ - note tied to previous; . - note dotted; .. - note double dotted
Uncapitalized letters represent notes that are staccato (1/2 duration)
Irregular groupings are notated above the duration line
Duration letters will always appear directly above the note/fret number it represents the
duration for.  Duration letters with no fret number below them represent rests.  Multi-
bar rests are notated in the form Wxn, where n is the number of bars to rest for.  Low
melody durations appear below the staff

Tablature Legend
----------------
 h   - hammer-on
 p   - pull-off
 b   - bend
 pb  - pre-bend
 r   - bend release (if no number after the r, then release immediately)
 /\  - slide into or out of (from/to "nowhere")
 s   - legato slide
 S   - shift slide
 - natural harmonic
[n]  - artificial harmonic
n(n) - tapped harmonic
 ~   - vibrato
 tr  - trill
 T   - tap
 TP  - trem. picking
 PM  - palm muting
\n/  - tremolo bar dip; n = amount to dip
 \n  - tremolo bar down
 n/  - tremolo bar up
/n\  - tremolo bar inverted dip
 =   - hold bend; also acts as connecting device for hammers/pulls
 <> - volume swell (louder/softer)
 x   - on rhythm slash represents muted slash
 o   - on rhythm slash represents single note slash

Misc Legend
-----------
 |  - bar
||  - double bar
||o - repeat start
o|| - repeat end
*|  - double bar (ending)
 :  - bar (freetime)
 $  - Segno
 &  - Coda
Tempo markers -  = BPM(8/16=s8/s16), where s8 = swing 8ths, s16 = swing 16ths

Related for Twilight Symphony tab