Guitaretab - guitar tabs
Song name
# A B C D E F G H I J K L M N O P Q R S T U V W X Y Z

Stratovarius - Will The Sun Rise tab

Will the Sun Rise?
By Stratovarius	

From album "Episode"
Tabbed by Sami Rikala


Tune  down

      P.M....	P.M.....   P.M.....    P.M....    P.M.  P.M.....    P.M....    P.M....  
|-------------------------------------------------------------------------------------------|
|-------------------------------------------------------------------------------------------|
|--7----------5----------4----------5----------4------7----------5----------4----------5--4-|
|--7----------7----------3----------7----------6------7----------7----------3----------3--3-|
|-----0-0-0-0----0-0-0-0----0-0-0-0----0-0-0-0----0-0----0-0-0-0----0-0-0-0----0-0-0-0------|
|-------------------------------------------------------------------------------------------|


      P.M....   P.M.....   P.M.....    P.M....    P.M...................   P.M.............. 
|-------------------------------------------------------------------------------------------|
|-------------------------------------------------------------------------------------------|
|--7----------5----------4----------5----------4-------------------------2------------------|
|--7----------7----------3----------7----------6---------------------------5-3-2------------|
|-----0-0-0-0----0-0-0-0----0-0-0-0----0-0-0-0-----------------------3-2---------5-3-2------|
|--------------------------------------------------0-0-0-0-0-1-0-5-4-------------------5-3-0|
1st Verse 
       P.M....          P.M.......	    P.M.....		1st time    2nd time
|-------------------------------------------------------------|------------|----------------|
|-------------------------------------------------------------|------------|----------------|
|---2----------2-------5-----------5-------7---------7----2---|------------|----------------|
|---2----------2-------3-3-3-3-3-3-3-------5-5-5-5-5-5----2---|------5-----|-------2h3p2----|
|------0-0-0-0--------------------------------------------0---|--3---3---5-|-0-2-3-------5-3|
|-------------------------------------------------------------|--1-------3-|----------------|


                     P.M........................................................... 
|-------------------------------------------------------------------------------------------|
|-------------------------------------------------------------------------------------------|
|---5-------5-------2-----------------------------------------------------------------------|
|---3-------3-------2-----------------------------------------------------------------------|
|-------------------0-0-0-0-0-0-0-0-0-0-2-0-3-0-5-0-7-0-8-0-7-0-5-0-7-0-5-0-3-0-2-0---------|
|-------------------------------------------------------------------------------------------|       			     P.M..............	
|-------------------------------------------------------------------------------------------|
|-------------------------------------------------------------------------------------------|
|----5-------7------------------------------------------------------------------------------|
|----3-------5-------5----------------------------------------------------------------------|
|--------------------3-------5-5-5-5-5-5-5-5-5----------------------------------------------|
|----------------------------3-3-3-3-3-3-3-3-3----------------------------------------------|chorus					 P.M...................	  P.M.............. 				    2nd time
|----------------------------------------------------------------------------------|--------|
|----------------------------------------------------------------------------------|--------|
|-----------------------5--4---5----2---------------------------2------------------|-2------|
|---------7-------------3--2---3----2-----------------------------5-3-2------------|-2------|
|--7------5------5------------------0-----------------------3-2---------5-3-2------|-0--/12~|
|--5-------------3------------------------0-0-0-0-0-1-0-5-4-------------------5-3-0|--------|
2nd verse

chorusGuitar and keyboards     

|--------17---------------------------------------------------------8---------10---------12-|
|----17------17--18~----15--17-15-13-17-15-13-12-15-13------10-9-10---10-9-10----10-9-10----|
|------------------------------------------------------14-----------------------------------|
|-------------------------------------------------------------------------------------------|
|-------------------------------------------------------------------------------------------|
|-------------------------------------------------------------------------------------------||---------13---------12-13-12-10--------------------/19--17-16-17-20-----17--15-14-15-19----|
|-10-9-10----10-9-10-------------13-12-10-9-10------------------------17--------------------|
|----------------------------------------------9--------------------------------------------|
|-------------------------------------------------------------------------------------------|
|-------------------------------------------------------------------------------------------|
|-------------------------------------------------------------------------------------------|


								P.M.
|--17p15p14p12---14-15-17-------17-15----------------------------------15--14-15-14~--------|
|-------------------------13-12-------12--10-12-13-10---------------------------------------|
|-----------------------------------------------------8-9-11-8------------------------------|
|---------------------------------------------------------------10-7------------------------|
|-------------------------------------------------------------------------------------------|
|-------------------------------------------------------------------------------------------||15-17-19-15-------------20-----------------------------------------------------------------|
|------------16-17-19-16----17-19-16--19-17-16-19-17-16-------------------------------------|
|---------------------------------------------------------14-16-17--16-14----14-16--14------|
|-------------------------------------------------------------------------17-----------17-16|
|-------------------------------------------------------------------------------------------|
|-------------------------------------------------------------------------------------------||-------------------------------------------------20p19p17----------------------------------|
|----------------------------------------------------------20p19p17-------------------------|
|-16-14h16p14-------------------------------------------------------19p17p16----------------|
|-------------17-16-14~------------------------------------------------------19p17p16-------|
|-------------------------------------------------------------------------------------------|
|-------------------------------------------------------------------------------------------|


Solo
|-------------------------------------------------------------------------------------------|
|-------------------------------------------------------------------------------------------|
|---/16~----------------16h17p16-----------------------16h17h19p17p16----16-17-19/20-17-16--|
|--------------16h17h19----------19-17-16-----16h17h19----------------19--------------------|
|-----------19-----------------------------19-----------------------------------------------|
|-------------------------------------------------------------------------------------------|

[ Tab from: http://www.guitaretab.com/s/stratovarius/43796.html ]
                 
|-----------------------------------------------|-------------------------------------------|
|-----------------------------------------------|-------------------------------------------|
|------------------16-17-19-20-20-20-20-21~-----|----------Keyboard-Solo--------------------|
|---19-17-16-17-19------------------------------|-------------------------------------------|
|-----------------------------------------------|-------------------------------------------|
|-----------------------------------------------|-------------------------------------------|
|-------------------------------------------------------------------------------------------|
|-------------------------------------------------------------------------------------------|
|-------------16h17p16----------------------------------------------------------------------|
|----16-17-19----------19-17-16-----------16-17-19-17-16----------16-17-19-17-16-17-19------|
|-19-----------------------------19-18-19----------------19-18-19---------------------------|
|-------------------------------------------------------------------------------------------|
|-------------------------------------------------------------------------------------------|
|-------------------------------------------------------------------------------------------|
|--16h17p16-----------------------------16h17p16----------------16h17h19p17p16-21~----------|
|-----------19-17-16----------16-17-19-----------19-17-16-17-19-----------------------------|
|--------------------19-18-19---------------------------------------------------------------|
|-------------------------------------------------------------------------------------------||---------------------|
|---------------------|
|--Keyboard solo------|
|---------------------|
|---------------------|
|---------------------|             T 22
    b        b
|--19--19----19--19~---15-17-19-17-15\14-15-17-15-14\12-14-15-14-12\10-12-14-12-10-12-------|
|-------------------------------------------------------------------------------------------|
|-------------------------------------------------------------------------------------------|
|-------------------------------------------------------------------------------------------|
|-------------------------------------------------------------------------------------------|
|-------------------------------------------------------------------------------------------||---------------------|
|---------------------|
|--Keyboard solo------|
|---------------------|
|---------------------|
|---------------------|
|----------------------------------------------15-17-19-17-15-17-15-14----------------------|
|-------------------------------------16-17-19-------------------------16-15-13-------------|
|----------------------------14-16-17-------------------------------------------15-14-12----|
|----------13-14-16-14-16-17----------------------------------------------------------------|
|-12-14-15----------------------------------------------------------------------------------|
|-------------------------------------------------------------------------------------------|
|-------------------------------------------------------------------------------------------|
|-16-15-13----------------------------------------------------------------------------------|
|----------15-14-12-14-12-11-12p11----------------------------------------------------------|
|----------------------------------14-13-14~------------------------------------------------|
|-------------------------------------------------------------------------------------------|
|-------------------------------------------------------------------------------------------|
|---8p5---5-8p5-10p5-8p5---5-8p5---5-8p5---5-8p5-10p5-8p5---5-8p5---5-10p7---7-10p7-12p7----|
|-------6----------------6-------6-------7----------------7-------7--------8----------------|
|-------------------------------------------------------------------------------------------|
|-------------------------------------------------------------------------------------------|
|-------------------------------------------------------------------------------------------|
|-------------------------------------------------------------------------------------------|
|-10p7---7-10p7--7-10p7---7-10p7-12p7-10p7---7-10p7---7-------------------------------------|
|------8-------8--------9------------------9--------9---------------------------------------|
|-------------------------------------------------------------------------------------------|
|-------------------------------------------------------------------------------------------|
|-------------------------------------------------------------------------------------------|
|-------------------------------------------------------------------------------------------|
|---16p13-----------------------------------------------------------------------------------|
|---------15----------15--------------------------------------------------------------------|
|------------16-13-16----16-13-16---13------------------------------------------------------|
|---------------------------------15---12-15----12-------------------12-15-------12-15------|
|--------------------------------------------14----11-14-------11-14-------11-14-------14---|
|--------------------------------------------------------10-13------------------------------|
|---------------------------------------------16---/19p16----16---/22--20-19--19-17~--------|
|-------------------------------15-----15--18-------------18--------------------------------|
|-------13----13-16-13----13-16----16-------------------------------------------------------|
|-12-15----15----------15-------------------------------------------------------------------|
|-------------------------------------------------------------------------------------------|
|-------------------------------------------------------------------------------------------|With solo
 P.M..........................................................................
|-------------------------------------------------------------------------------------------|
|-------------------------------------------------------------------------------------------|
|-------------------------------------------------------------------------------------------|
|-------------------------------------------------------------------------------------------|
|-2-2-2-2-2-2-2-2-2-2-2-2-2-0-0-------------------------------------------0-0---------------|
|-------------------------------3-3-2-2-0-0-0-0-0-0-0-0-0-0-0-0-0-2-2-3-3-------------------|      P.M....    P.M....    P.M....    P.M....   P.M.    P.M....    P.M....    P.M....
|-------------------------------------------------------------------------------------------|
|-------------------------------------------------------------------------------------------|
|--7----------5----------4----------5----------4------7----------5----------4----------5--4-|
|--7----------7----------3----------7----------6------7----------7----------3----------3--3-|
|-----0-0-0-0----0-0-0-0----0-0-0-0----0-0-0-0----0-0----0-0-0-0----0-0-0-0----0-0-0-0------|
|-------------------------------------------------------------------------------------------|     P.M.....    P.M....    P.M....    P.M....    P.M...................  P.M...............
|-------------------------------------------------------------------------------------------|
|-------------------------------------------------------------------------------------------|
|--7----------5----------4----------5----------4-------------------------2------------------|
|--7----------7----------3----------7----------6---------------------------5-3-2------------|
|-----0-0-0-0----0-0-0-0----0-0-0-0----0-0-0-0-----------------------3-2---------5-3-2------|
|--------------------------------------------------0-0-0-0-0-1-0-5-4-------------------5-3-0|
chorus

Outro
repeat
|---------------------------------------br------------b-----------------------------------|
|-----------------------------------10--12-12-13----15-17-17-15-17--18-17--15--13--12-------|
|---5--7-9--10--9-7--4--5-7--5--4-----------------------------------------------------------|
|-------------------------------------------------------------------------------------------|
|-------------------------------------------------------------------------------------------|
|-------------------------------------------------------------------------------------------|
Related for Will The Sun Rise tab