Guitaretab - guitar tabs
Song name
# A B C D E F G H I J K L M N O P Q R S T U V W X Y Z

Stratovarius - Lead Us Into The Light tab

vLocation: Season of Change - http://www.sci.fi/~jnevala/stratovarius/

					   	      -STRATOVARIUS-

				    LEAD US INTO THE LIGHT (from Twilight Time)
				   ---------------------------------------------
					    Music and Words by: Timo Tolkki

Transcribed By: Niclas Buss 

email:Nbjbuss@hotmail.com 

If you find any mistakes, please mail me!

Tune down  step!

 Clean sound

E----------0-----------0------------0-----------0------------0-----------0------------0-------------------------|
B----------0-----------0------------0-----------0------------0-----------0------------0-------------------------|
G-------5-----------5------------7-----------7------------5-----------5---------------9-----------9--------10-9-| x2
D----7-----------7------------5-----------5------------7-----------7---------------9-----------9--------9-------|
A-0-----------0------------0-----------0------------0-----------0---------------7-----------7--------7----------|
E----------------------------------------------------------------------------0-----------0----------------------|

 Verse 1 riff
E----------0-----------0------------0-----------0------------0-----------0------------0-------------------------|
B----------0-----------0------------0-----------0------------0-----------0------------0-------------------------|
G-------5-----------5------------7-----------7------------5-----------5------------5--------------9--------10-9-| 
D----7-----------7------------5-----------5------------7-----------7------------7--------------9--------9-------|
A-0-----------0------------0-----------0------------0-----------0------------0--------------7--------7----------|
E----------------------------------------------------------------------------------------0----------------------|

																  end Verse 1 riff
E----------0-----------0------------0-----------0------------0-----------0------------0-----------0-------------|
B----------0-----------0------------0-----------0------------0-----------0------------0-------------0-----------|
G-------5-----------5------------7-----------7------------5-----------5------------5-----------5------5-----5---| 
D----7-----------7------------5-----------5------------7-----------7------------7-----------7------------7------|
A-0-----------0------------0-----------0------------0-----------0------------0-----------0----------------------|
E---------------------------------------------------------------------------------------------------------------|

1st Verse

Hey You take a look around Can you feel the change begin? 
Soon it will be too late if you don't wake up!
Outside the winds are blowing 
And the people are staring so cold
The look that's in their eyes tells me somethings wong

?Chorus 1 riff? (2 times)

F5 G5 A5  


 Verse 2 riff
E----------0-----------0------------0-----------0------------0-----------0------------0-------------------------|
B----------0-----------0------------0-----------0------------0-----------0------------0-------------------------|
G-------5-----------5------------7-----------7------------5-----------5------------5--------------9--------10-9-| 
D----7-----------7------------5-----------5------------7-----------7------------7--------------9--------9-------|
A-0-----------0------------0-----------0------------0-----------0------------0--------------7--------7----------|
E----------------------------------------------------------------------------------------0----------------------|

																end Verse 2 riff
E----------0-----------0------------0-----------0------------0-----------0------------0--------------------------|
B----------0-----------0------------0-----------0------------0-----------0------------0--------------------------|
G-------5-----------5------------7-----------7------------5-----------5------------5-----------------------------| 
D----7-----------7------------5-----------5------------7-----------7------------7--------7-----dist-on-----------|
A-0-----------0------------0-----------0------------0-----------0------------0-----------7-----------------------|
E----------------------------------------------------------------------------------------5-----------------------|

2nd Verse 

It's so strange we have gone so far
Still knowing what will happen if we close our eyes
Is thisthe hell on earth?
And the heaven is out of our sight
Open your eyes realize it's not too late


Chorus 2 Riff
				 pm...|       pm...|
E-------------------------------------------------------|
B-------------------------------------------------------|
G----------------------------------------------------5--| x2
D--3----------5--------7---7-7-7--5--7--7-7-7--5--7--5--|
A--3----------5--------7---7-7-7--5--7--7-7-7--5--7--3--|
E--1----------3--------5---5-5-5--3--5--5-5-5--3--5-----|
     Lead us into the light

				 pm...|       pm...|
E-------------------------------------------------------|
B-------------------------------------------------------|
G----------------------7---7-7-7--5--7--7-7-7--5--7--5--|
D--3----------5--------7---7-7-7--5--7--7-7-7--5--7--5--|
A--3----------5--------5---5-5-5--3--5--5-5-5--3--5--3--|
E--1----------3-----------------------------------------|
    Lead us into the light
				 pm...|       pm...|

E----------------------------------|
B----------------------------------|
G----------------------------------|
D--3----------5--------7-----------| end Chorus Riff
A--3----------5--------7-----------|
E--1----------3--------5-----------|
     Lead us into the light



Guitar Solo
[ Tab from: http://www.guitaretab.com/s/stratovarius/43800.html ]
E------------------------------------------------------------------------------------|
B------------------------------------------------------------------------------------|
G---14b(16)~~~~r14------14b(16)~~~~r14------14b(16)~~~~14--16h17p16-13---------------|
D--------------------14------------------14-----------------------------14-14h15p15--|
A------------------------------------------------------------------------------------|
E------------------------------------------------------------------------------------|

E-----17b(19)~~~~r17------17b(19)~~~~r17---------19~~~-19b(20)r19-17--19h20p19--16----------|
B--17------------------17------------------17-17-----------------------------------17-17~~--|
G-------------------------------------------------------------------------------------------|
D-------------------------------------------------------------------------------------------|
A-------------------------------------------------------------------------------------------|
E-------------------------------------------------------------------------------------------|

E-------------------------------------------------------------------------------------------------------|
B--15---12-14-15-14-----------13---10-12-13-12---------11---8-10-11-10-------------------------9----10--|
G-------------------15-11----------------------13-9--------------------11--7--------8-----9-------------|
D-------------------------11------------------------9------------------------7--9------9-----9----9-----|
A-------------------------------------------------------------------------------------------------------|
E-------------------------------------------------------------------------------------------------------|

Chorus
 
 Gtr.1																	     x2
E------------------------------------------------------------------------------------------------------------------|
B------------------------------------------------------------------------------------------------------------------|
G------------9---------------------------9---------------------------9---------------------------9-----------------|
D--7-10-9-10---10-9-10-7-------7-10-9-10---10-9-10-7-------7-10-9-10---10-9-10-7-------7-10-9-10---10-9-10-7-------|
A------------------------------------------------------------------------------------------------------------------|
E------------------------------------------------------------------------------------------------------------------|
     pm...............|		   pm...............|		 pm...............|          pm...............|

 Gtr.2																	     x2
E------------------------------------------------------------------------------------------------------------------|
B------------------------------------------------------------------------------------------------------------------|
G------------------------------------------------------------------------------------------------------------------|
D--7-7-7-7-7-7-7-7-7--7-7--7---5-5-5-5-5-5-5-5-5--5-5--5---3-3-3-3-3-3-3-3-3--3-3--3---2-2-2-2-2-2-2-2-2--2-2--2---| 
A--7-7-7-7-7-7-7-7-7--7-7--7---5-5-5-5-5-5-5-5-5--5-5--5---3-3-3-3-3-3-3-3-3--3-3--3---2-2-2-2-2-2-2-2-2--2-2--2---|
E--5-5-5-5-5-5-5-5-5--5-5--5---3-3-3-3-3-3-3-3-3--3-3--3---1-1-1-1-1-1-1-1-1--1-1--1---0-0-0-0-0-0-0-0-0--0-0--0---|
    pm....|  pm...|  pm..|      pm....|  pm...|  pm..|      pm....|  pm...|  pm..|      pm....|  pm...|  pm..|


Gtr.1
E--------------------------------------------------------------------------------------------------------------------------|
B--------------------------------------------------------------------------------------------------------------------------|
G*-----------9-------------------9-------------------9-------------------9-------------------9-------------------9---------|
D*-7-10-9-10---10-9-10-7-10-9-10---10-9-10-7-10-9-10---10-9-10-7-10-9-10---10-9-10-7-10-9-10---10-9-10-7-10-9-10---10-9-10-|
A--------------------------------------------------------------------------------------------------------------------------|
E--------------------------------------------------------------------------------------------------------------------------|
    pm.....................................................................................................................

Gtr.2
E-------------------------------------------------------------------------------------------------------------------------|
B-------------------------------------------------------------------------------------------------------------------------|
G*------------------------------------------------------------------------------------------------------------------------|
D*-7--7-7-7--7--7-7-7--7--7-7-7--7--7-7-7--5--5-5-5--5--5-5-5--5--5-5-5--5--5-5-5--3--3-3-3--3--3-3-3--3--3-3-3--3--3-3-3-|
A--7--7-7-7--7--7-7-7--7--7-7-7--7--7-7-7--5--5-5-5--5--5-5-5--5--5-5-5--5--5-5-5--3--3-3-3--3--3-3-3--3--3-3-3--3--3-3-3-|
E--5--5-5-5--5--5-5-5--5--5-5-5--5--5-5-5--3--3-3-3--3--3-3-3--3--3-3-3--3--3-3-3--1--1-1-1--1--1-1-1--1--1-1-1--1--1-1-1-|
     pm....|   pm....|   pm....|   pm....|   pm....|   pm....|   pm....|   pm....|   pm....|   pm....|   pm....|   pm....|

Gtr.1
E------------------------------------------|
B------------------------------------------|
G-----------9-------------------9---------*| play 2 times 
D-7-10-9-10---10-9-10-7-10-9-10---10-9-10-*|
A------------------------------------------|
E------------------------------------------|
........................................|

Gtr.2
E-----------------------------------------|
B-----------------------------------------|
G----------------------------------------*| play 2  times
D-2--2-2-2--2--2-2-2--2--2-2-2--2--2-2-2-*|
A-2--2-2-2--2--2-2-2--2--2-2-2--2--2-2-2--|
E-0--0-0-0--0--0-0-0--0--0-0-0--0--0-0-0--|
    pm....|   pm....|   pm....|   pm....|

2nd Time Fade out

TABLAURE EXPLANATION
**********************
pm..| = Plam mute

p = Pull off

h = Hammer on

b() = bend

~~~~ = vibrato


| 			 |
|*			*| = repeat 
|*			*|
|			 |
Related for Lead Us Into The Light tab