Song name
# A B C D E F G H I J K L M N O P Q R S T U V W X Y Z

Stratovarius - Fantasia tab

Band:  STRATOVARIUS
Album: ELEMENTS PART 1
Song:  FANTASIA

.  - palm mute           /  - slide up to
\  - slide down to       ~  - vibrato
h  - hammer on           b  - Bend
p  - pull off            Suffixes for bend
t  - tap                 f  - full bend    h - half bend
ph - pinched harmonic    q  - quarter bend t - tap bend
*  - see comment         ^  - Hold bend    r release bend
x  - Stuccatto           ~  - vibrato bend
,  - slight palm mute    () - ghost note, sustained note
"  - tremolo note        <> - Trill

              
 Explosion
 Part with
  effects           INTRO ELECTRIC GUITAR  (2x)
|----------|-------------------------------------------|
|----------|-------------------------------------------|
|----------|-------------------------------------------|
|--5-------|-------------------------------------------|
|--5-------|-333etc-3-5-6-3-5-5555etc-3-5-6-3-2--333etc|
|--3-------|-------------------------------------------|

  repeat
 this a lot  and
  of times    this
|---------|---------|-----------|
|---------|---------|-----------|
|-19-18-16|-21-20-18|--keyboards|
|---------|---------|-----------|
|---------|---------|-----------|
|---------|---------|-----------|

 FIRST VERSE   Repeat 2x
|------------------------------------------------------------------------------|
|------------------------------------------------------------------------------|
|--9----------4-----4-4------9---7---7-7---10---5--5-5----------9--7-----------|
|--9----------4-----4-4------9---7---7-7---10---5--5-5-----2----9--7-----------|
|--7----------2-----2-2------7---5---5-5----8---3--3-3-----2----7--5-----------|
|----------------------------------------------------------0-------------------|

Pre-chorus         CHORUS (4x)     Fantasia....
|--------|-----------------------------------------------------------|
|--------|-----------------------------------------------------------|
|--------|--9--(9)------5---(5)--------------------------------------|
|--5---7-|--9--(9)------5---(5)----2---(2)---------------------------|
|--5---7-|--7--(7)------3---(3)----2---(2)---------------------------|
|--3---5-|-------------------------0---(0)---------------------------|

(VERSE NO GUITAR)

HARMONIC  MELODY


  ROCK PART
 (8x)
|--------------------------------|
|--------------------------------|
|--5-5--5-5--5-5--5-5--3-5-6-3-5-|
|--5-5--5-5--5-5--5-5--3-5-6-3-5-|
|--------------------------------|
|--------------------------------|

  Verse (2x)
|--------------------------------------------------------------------------|
|--------------------------------------------------------------------------|
|--5--5-5--5-5-5-5-5-5---3-3-3-3-3-3--5-5-5-5-5-5-5---3--5-6-3-5-5-5-5-5--5|
|--5--5-5--5-5-5-5-5-5---3-3-3-3-3-3--5-5-5-5-5-5-5---3--5-6-3-5-5-5-5-5--5|
|--------------------------------------------------------------------------|
|--------------------------------------------------------------------------|

   THIS PART
  WITH EFFECTS
|--------------------|-----------------------------------------------|
|--------------------|-----------------------------------------------|
|--------------------|-5-5-5-5-5-5-5-5--3--5-6-3--5-5-5-5-5-5-5-5----|
|--------------------|-5-5-5-5-5-5-5-5--3--5-6-3--5-5-5-5-5-5-5-5----|
|-1-1-1-1-1-1-1-1-1-1|-----------------------------------------------|
|--------------------|-----------------------------------------------|

|--------------------|-----------------------------------------------|
|--------------------|-----------------------------------------------|
|--------------------|-----------------------------------------------|
|--------------------|-----------------------------------------------|
|-1-1-1-1-1-1-1-1-1-1|-3-3-3-3-3-3-3-3-3-3-3-3-3-3-3-3-3-3-----------|
|--------------------|-----------------------------------------------|

 (2x)
|-------------------------------------------------------------------|
|-------------------------------------------------------------------|
|-2-2-2-2-2-2----7-7-7-7-7-7-7-7---2-2-2-2-2-2-2-2-----5---7--------|
|-2-2-2-2-2-2----7-7-7-7-7-7-7-7---2-2-2-2-2-2-2-2-----5---7--------|
|-------------------------------------------------------------------|
|-------------------------------------------------------------------|

 SOLO   80% safe IM SURE  (2x)
|------------------------------------------------------------------------------
|-------------------------------------------------------------6-8-10-8-6-8-6--6
|-14~---10~------7~-------12~---------9~---------5~---7~-7--9----------------9-
|------------------------------------------------------------------------------
|------------------------------------------------------------------------------
|------------------------------------------------------------------------------

  (2x)
|--------------------------------------------------------------------13-15-17-15
|-22~------18~------15~---------20~-------17~---------13~-15~--15--17-----------
|-------------------------------------------------------------------------------
|-------------------------------------------------------------------------------
|-------------------------------------------------------------------------------
|-------------------------------------------------------------------------------

-13-15-13----13----|
----------17----17-|
-------------------|
-------------------|
-------------------|
-------------------|

  (3x)     CHORUS (4x)
|--------|-----------------------------------------------------------|
|--------|-----------------------------------------------------------|
|--------|--9--(9)------5---(5)--------------------------------------|
|--5---7-|--9--(9)------5---(5)----2---(2)---------------------------|
|--5---7-|--7--(7)------3---(3)----2---(2)---------------------------|
|--3---5-|-------------------------0---(0)---------------------------|

CHORUS (4x)
|----------------------------------------------------------------|
|----------------------------------------------------------------|
|--9---(9)------5-----(5)---------------------9--------7---------|
|--9---(9)------5-----(5)----2-----(2)--------9--------7---------|
|--77-7(7)7-7---33-3--(3)3-3-2-----(2)--------7-7-7-7--5-5-5-5---|
|----------------------------0-0-0-(0)-0-0-0---------------------|

END
Tap to rate this tab
 
# A B C D E F G H I J K L M N O P Q R S T U V W X Y Z