Song name
# A B C D E F G H I J K L M N O P Q R S T U V W X Y Z

Stratovarius - Dreamweaver tab

Intro:

E------9-----9-----7-----5------------7-----7-----5---------------|
B----7-----7-----7-----7-----7-9~---7-----7-----7-----7-9---7-9~~-|
G--6-----6-----6-----6-----6------7-----7-----7-----7-----7-------|
D-----------------------------------------------------------------|
A-----------------------------------------------------------------|
E-----------------------------------------------------------------|

E------9-----9-----7-----5------------9-----9-----12-----10-----7-|
B----7-----7-----7-----7-----7-9~---7-----7-----7------7------7---|
G--6-----6-----6-----6-----6------7-----7-----7------7------7-----|
D-----------------------------------------------------------------|
A-----------------------------------------------------------------|
E-----------------------------------------------------------------|

E------9-----9-----7-----5------------7-----7-----5---------------|
B----7-----7-----7-----7-----7-9~---7-----7-----7-----7-9---7-9~~-|
G--6-----6-----6-----6-----6------7-----7-----7-----7-----7-------|
D-----------------------------------------------------------------|
A-----------------------------------------------------------------|
E-----------------------------------------------------------------|


                                           play         this
E------9-----9-----7-----5----------------------------------------|
B----7-----7-----7-----7-----7-9~------------------------10121415-|
G--6-----6-----6-----6-----6------------------------91113---------|
D----------------------------------------------91112--------------|
A-----------------------------------------91112-------------------|
E----------------------------------1091012------------------------|


      very                  fast
E--------------------------------|
B141210141210--1210----10--------|
G-------------13----1311--131110-|
D--------------------------------|
A--------------------------------|
E--------------------------------|

E------9-----9-----7-----5------------7-----7-----5---------------|
B----7-----7-----7-----7-----7-9~---7-----7-----7-----7-9---7-9~~-|
G--6-----6-----6-----6-----6------7-----7-----7-----7-----7-------|
D-----------------------------------------------------------------|
A-----------------------------------------------------------------|
E-----------------------------------------------------------------|

E------9-----9-----7-----5------------9-----9-----12-----10-----7-|
B----7-----7-----7-----7-----7-9~---7-----7-----7------7------7---|
G--6-----6-----6-----6-----6------7-----7-----7------7------7-----|
D-----------------------------------------------------------------|
A-----------------------------------------------------------------|
E-----------------------------------------------------------------|

E------9-----9-----7-----5------------7-----7-----5---------------|
B----7-----7-----7-----7-----7-9~---7-----7-----7-----7-9---7-9~~-|
G--6-----6-----6-----6-----6------7-----7-----7-----7-----7-------|
D-----------------------------------------------------------------|
A-----------------------------------------------------------------|
E-----------------------------------------------------------------|

E------9-----9-----7-----5------------9-----9-----12-----10-----7-10~~-|
B----7-----7-----7-----7-----7-9~---7-----7-----7------7------7--------|
G--6-----6-----6-----6-----6------7-----7-----7------7------7----------|
D----------------------------------------------------------------------|
A----------------------------------------------------------------------|
E----------------------------------------------------------------------|


That's it. I know that's not very easy to play, but try to listen to rhythm.
This is my second tab and i hope you enjoy it.
Thank you.
Tap to rate this tab
 
# A B C D E F G H I J K L M N O P Q R S T U V W X Y Z