Guitaretab - guitar tabs
Song name
# A B C D E F G H I J K L M N O P Q R S T U V W X Y Z

Stratovarius - A Drop In The Oceans tab

Band:  Stratovarius
Album: Elements part 1
Song:  A Drop In The Oceans
Transcribed By: thomas-pet^^




Tunning E A D G B E

Intro
e|----------------------------------------x2---------------|
B|---------------------------------------------------------|
G|----4---------4---------4---------4----------------------|
D|------6---------6---------6---------6--------------------|
A|---6----6----6----6----7----7----7----7------------------|
E|-4---------4---------4---------4-------------------------|

Riff 1
e|-----------------------------------------x4-------------|
B|--------------------------------------------------------|
G|---4---------4---------4---------4----------------------|
D|-----6---------6---------6---------6--------------------|
A|--6----6----6----6----7----7----7----7------------------|
E|4---------4---------4---------4-------------------------|

Riff 2
e|------------------------------------------x2------------|
B|---4---------4---------4---------4----------------------|
G|-----6---------6---------6---------6--------------------|
D|--6----6----6----6----6----6----6----6------------------|
A|4---------4---------4---------4-------------------------|
E|--------------------------------------------------------|
[ Tab from: http://www.guitaretab.com/s/stratovarius/78968.html ]
Riff 3
e|---------------------------------------------------------|
B|---4---------4---------5---------5-----------------------|
G|-----4---------4---------4---------4---------------------|
D|--4----4----4----4----6----6----6----6-------------------|
A|6---------6---------7---------7--------------------------|
E|---------------------------------------------------------|

Riff 4
e|---------------------------------------------------------|
B|----5-----------5----------4---------4-------------------|
G|--6---6-------6---6----------4---------4-----------------|
D|7-----------7-------------4----4----4----4---------------|
A|---------4-----------4--6---------6----------------------|
E|---------------------------------------------------------|

CHORUS
Whit the harmoni , just listen the song  in the chorus , verse
e|--0-----|--0-----|--2-----|--2-----|--0-----|--0------X2--|
B|--0-----|--2-----|--2-----|--2-----|--0-----|--0----------|
G|--2-----|--2-----|--4-----|--2-----|--1-----|--1----------|
D|--2-----|--2-----|--4-----|--4-----|--2-----|--0----------|
A|--2-----|--0-----|--2-----|--4-----|--2-----|--2----------|
E|--0-----|--0-----|--2-----|--2-----|--0-----|--0----------|


Solo
e|------------------------------|11-9------------------------|
B|------------------------------|----12-11--12-9----------5--|
G|8-6------------------6-8-11-8-|----------------11-9--6-8---|
D|---10-8-6-8-6--6-8-10---------|----------------------------|
A|------------------------------|----------------------------|
E|------------------------------|----------------------------|

This is the order after the solo
(Riff 1)(Riff 2)(Riff 3)(Riff4)
(Chorus x2)

here is the final but is only harmoni , thats all ok .
e|--4-----|---4----|x4
B|--4-----|---5----|
G|--4-----|---4----|
D|--6-----|---6----|
A|--6-----|---7----|
E|--4-----|---4----|
Related for A Drop In The Oceans tab
A Drop In The Oceans chords by Stratovarius