Guitaretab - guitar tabs
Song name
# A B C D E F G H I J K L M N O P Q R S T U V W X Y Z

Stratovarius - Guitar Concerto tab

-----------------------------------------------------------------------------
			     Guitar concerto - Stratovarius
-----------------------------------------------------------------------------
Tabbed by:Abed el rahman baayoun
Email:Saharienrebel@hotmail.com

Tuning:standard

i know there's another way to play this song but this is how timo tolki plays it in a
concert in finland while yari plays backup chords

guitar 1{timo} play:
e|--------------------12----------------------------12=12=12-14--------------|
B|-12-10-12=-12-13-15----15-13-12-10-12=---12-13-15-------------15-13-12-10--|
G|---------------------------------------------------------------------------|
D|---------------------------------------------------------------------------|
A|---------------------------------------------------------------------------|
E|---------------------------------------------------------------------------|

e|---------------------------------------------------------------------------|
B|-8-10-8-10-12-8-7-8-10-7-5-7=-7-7-8-10-8-7-7-5-5---------------------------|
G|---------------------------------------------------------------------------|
D|---------------------------------------------------------------------------|
A|---------------------------------------------------------------------------|
E|---------------------------------------------------------------------------|
                                       ~     ~   ~

e|----------------------------------------12---------------------------------|
B|-12-10-12=12h13p12h10p12-10-12=12-13-15----15-13-12-10-12=12h13p12h10p12---|
G|---------------------------------------------------------------------------|
D|---------------------------------------------------------------------------|
A|---------------------------------------------------------------------------|
E|---------------------------------------------------------------------------|

e|-------------------12=12=12-14---------------------------------------------|
B|-10-12=---12-13-15-------------15-13-12-10--8-10-8-10-12-8-7-8-10-7-5-7=-7-|
G|---------------------------------------------------------------------------|
D|---------------------------------------------------------------------------|
A|---------------------------------------------------------------------------|
E|---------------------------------------------------------------------------|
[ Tab from: http://www.guitaretab.com/s/stratovarius/82572.html ]
e|---------------------------------------------------------------------------|
B|-7-8-10-8-7-7-5-5----------------------------------------------------------|
G|---------------------------------------------------------------------------|
D|---------------------------------------------------------------------------|
A|---------------------------------------------------------------------------|
E|---------------------------------------------------------------------------|
        ~     ~   ~

e|-------5-7-8-10-12-10-12=-12-14-15=-14-12=-14--12-10-8-10-12=-10-----------|
B|-5-7-8-----------------------------------------------------------13-12-13=-|
G|---------------------------------------------------------------------------|
D|---------------------------------------------------------------------------|
A|---------------------------------------------------------------------------|
E|---------------------------------------------------------------------------|

e|---------------------------------------------------------------------------|
B|-12-10-8-10=--8-10-12-13-12=-10=-8-10-12-13-12=----------------------------|
G|------------------------------------------------9-11-12-14--12-11-11-9-9---|
D|---------------------------------------------------------------------------|
A|---------------------------------------------------------------------------|
E|---------------------------------------------------------------------------|
                                                           ~         ~   ~
e|--------------------15--------------------------15=15=15-17-13-------------|
B|-15-13-15=-15-16-18----18-16-15-13-15=-15-16-18----------------16-15=-13=--|
G|---------------------------------------------------------------------------|
D|---------------------------------------------------------------------------|
A|---------------------------------------------------------------------------|
E|---------------------------------------------------------------------------|

e|---------------------------------------------------------------------------|
B|-12=-13-12-13--15-11-10-11--10-8-10=-10-10-11-12-13=-11-10-10=-8-8=--------|
G|---------------------------------------------------------------------------|
D|---------------------------------------------------------------------------|
A|---------------------------------------------------------------------------|
E|---------------------------------------------------------------------------|
                                                        ~
guitar 2{yari} play:
these are the basic chords but i dont know how many times do you have to play them but
sure i tabbed it right just keep playing the first one when the song starts when you hear
change of style in guitar 1's playing switch to the other chord and vice versa {to get a 
idea try listening to the song and counting}

e|-0----|
B|-0----|
G|-0----|
D|-2----|
A|-2----|
E|-0----|

e|-2----|
B|-2----|
G|-3----|
D|-4----|
A|-4----|
E|-2----|

please rate this tabe

| =  sustain with a slight vibrato
| /  slide up
| \  slide down
| h  hammer-on
| p  pull-off
| ~  vibrato
| +  harmonic
| x  Mute note
===============================================================================
Related for Guitar Concerto tab
Advertisement will be closed in 10 seconds