Guitaretab - guitar tabs
Song name
# A B C D E F G H I J K L M N O P Q R S T U V W X Y Z

Stravaganzza - Hijo De La Luna tab

------------------------------------------------------------------------
Hijo de la Luna - Stravaganzza
------------------------------------------------------------------------
Tabbed by: Kevin Zambrano (n1v3k)
    Email: zambrano.k@gmail.com

   Tuning: Standard - Low to High (EADGBe)

Intro: (0:36-0:41)
e|----------------------------------------------------------------------|
B|----------------------------------------------------------------------|
G|----------------------------------------------------------------------|
D|--66666-6-------------------------------------------------------------|
A|--44444-4--66666-6--77777-7--44444-4--11~~~~--------------------------|
E|-----------44444-4--55555-5--22222-2---9~~~~--------------------------|
    *****    *****    *****    *****

1er Verso/Verse: (0:42-1:09)
e|-----------------|---------------------------------------------------||
B|-----------------|---------------------------------------------------||
G|-----------------|*-------------------------------------------------*||
D|--66666-6--66666-|*-99999--44444--66666-----------------------------*||
A|--44444-4--44444-|--77777--22222--44444--66666--7~~--7--7--9--11~~---||
E|-----------------|-----------------------44444--5~~--5--5--7---9~~---||
    *****    *****    *****  *****  *****  *****       *  *  *

1er Coro/Chorus: (1:10-1:40)
e||------------------||------------------|------------------------------|
B||------------------||------------------|------------------------------|
G||*----------------*||*----------------*|------------------------------|
D||*--13--11--9--8--*||*--13--11--9--8--*|--13--6-----6--8--------------|
A||---11---9--7--6---||---11---9--7--6---|--11--4--6--4--6--6-7~~-------|
E||------------------||------------------|---------4--------4-5~~-------|
                           *   *  *  *

Despues del coro/After Chorus: (1:43-1:48)
e|----------------------------------------------------------------------|
B|----------------------------------------------------------------------|
G|----------------------------------------------------------------------|
D|--66666-6-------------------------------------------------------------|
A|--44444-4--66666-6--77777-7--44444-4--11~~~~--------------------------|
E|-----------44444-4--55555-5--22222-2---9~~~~--------------------------|
    *****    *****    *****    *****

2do Verso/Verse: (1:49-2:17)
e|-----------------|------------------------------------------------|---|
B|-----------------|------------------------------------------------|---|
G|-----------------|*----------------------------------------------*|---|
D|--66666-6--66666-|*-99999--44444--66666--------------------------*|---|
A|--44444-4--44444-|--77777--22222--44444--66666--7~~--7--7--9--11~-|13~|
E|-----------------|-----------------------44444--5~~--5--5--7---9~-|11~|
    *****    *****    *****  *****  *****  *****       *  *  *
[ Tab from: http://www.guitaretab.com/s/stravaganzza/162533.html ]
2do Coro/Chorus: (2:18-2:45)
e||------------------||------------------|------------------------------|
B||------------------||------------------|------------------------------|
G||*----------------*||*----------------*|------------------------------|
D||*--13--11--9--8--*||*--13--11--9--8--*|--13--6-----6--8--------------|
A||---11---9--7--6---||---11---9--7--6---|--11--4--6--4--6--6-7~~-------|
E||------------------||------------------|---------4--------4-5~~-------|
                           *   *  *  *

Despues del coro/After Chorus: (2:47-2:55)
e||--------------------------------------|------------------------------|
B||--------------------------------------|------------------------------|
G||*------------------------------------*|------------------------------|
D||*-66666-6----------------------------*|------------------------------|
A||--44444-4--66666-6--77777-7--44444-4--|-11~~~~-----------------------|
E||-----------44444-4--55555-5--22222-2--|--9~~~~-----------------------|
     *****    *****    *****    *****

3er Verso/Verse: (2:59-3:24)
e|-----------------|------------------------------------------------|---|
B|-----------------|------------------------------------------------|---|
G|-----------------|*----------------------------------------------*|---|
D|--66666-6--66666-|*-99999--44444--66666--------------------------*|---|
A|--44444-4--44444-|--77777--22222--44444--66666--7~~--7--7--9--11~-|13~|
E|-----------------|-----------------------44444--5~~--5--5--7---9~-|11~|
    *****    *****    *****  *****  *****  *****       *  *  *

3er Coro/Chorus: (3:25-3:54)
e||------------------||------------------|------------------------------|
B||------------------||------------------|------------------------------|
G||*----------------*||*----------------*|------------------------------|
D||*--13--11--9--8--*||*--13--11--9--8--*|--13--6-----6--888------------|
A||---11---9--7--6---||---11---9--7--6---|--11--4--6--4--666--6-7~~-----|
E||------------------||------------------|---------4----------4-5~~-----|
                           *   *  *  *

      (3:54-4:05)     |                   (4:21-4:29)                   |
e|--------------------|-------------------------------------------------|
B|--------------------|-------------------------------------------------|
G|--------------------|-------------------------------------------------|
D|--6~~6~~------------|--99999--44444--66666----------------------------|
A|--4~~4~~-Fade Out---|--77777--22222--44444--66666--7~~--7--7--9--11~~-|
E|--4~~4~~------------|-----------------------44444--5~~--5--5--7---9~~-|
                         *****  *****  *****  *****       *  *  *

Final/End: (4:30-4:52)
e||--------------------------------------|------------------------------|
B||--------------------------------------|------------------------------|
G||*------------------------------------*|------------------------------|
D||*-66666-6----------------------------*|------------------------------|
A||--44444-4--66666-6--77777-7--44444-4--|-11~~~~--Fade Out-------------|
E||-----------44444-4--55555-5--22222-2--|--9~~~~-----------------------|
     *****    *****    *****    *****

Tablature Notation:
~ - Let ring
* - Palm Muting

Si quieren ver sta tablatura en acción visiten:
                        See This tab in action:

Hijo de la Luna (Two Guitars): http://www.youtube.com/watch?v=fLzwoFQQWoI
Hijo de la Luna  (One Guitar): http://www.youtube.com/watch?v=7n4nDu3atVk

Enjoy! December 2007
Saludos desde Venezuela! xD...
Chavez Sucks!
Peace! ¬¬
Hijo De La Luna chords by Stravaganzza