Song name
# A B C D E F G H I J K L M N O P Q R S T U V W X Y Z

Strawbellycake - You Are My Love tab

A Strawbellycake Englisch Cover Version from the song - You are my love
Da sie es auf Piano spielt und dazu auch noch singt, ist der Tab nicht übermäßig gut und 
muss noch verbessert werden...

Mail me at this address: Schulfreude08@yahoo.de
LG Yukiko Komonoke

Intro:

-------------------|
-------------------|
----0-2-3----0-2-3-|
--0---------0------|
-------------------|
-3---------3-------|

Strophe 1:

-----------------------------------------------------------------------|
-----------------------------------------------------------------------|
-3-2-0-2-3-5-3-2-------------------------------------------------------|
-----------------3__5-3-1-3-5-3-1-1 / 3__1-0---------------------------|
-------------------------------------------3__5-6-5-3 / 5-5__1-3-5-----| (5)__
-----------------------------------------------------------------------|

Strophe 2:

-------------------------------------------------------------------------|
-------------------------------------------------------------------------|
-3-2-0-2-3-2-0-0 h 2-2_0-------------------------------------------------|
-------------------------3-1_-3-5-3-1-1-3-3__1-0-------------------------|
------------------------------------------------ 3-5-6-5-3 / 5__1-3-5----| (5)__
-------------------------------------------------------------------------|

Bridge:

2x this
---------------------------------------|
---------------------------------------|
-0__2-3 (3)-5 (5)/ 7-2---0---2-3 (3)-2-|_
------------------- 3---3--------------|
---------------------------------------|
---------------------------------------|

After the second time one time this:
----------------------------------------------------------------------------|
----------------------------------------------------------------------------|
-0-2-3-3-5-5 /7-2---0_-0-- 2-3-3-3 h 2-2-3-3_-2-----------------------------|
----------------- 3-----3--------------------- 3-5__3-0-1__0_- 0___---------|
-----------------------------------------------------------1_---------------|
----------------------------------------------------------------------------|

Strophe 3:


----------------------------------------|
----------------------------------------|
-3-2-0-2-3-5-3-2------------------------|
-----------------3__5-3-1-3-5-3-1-1-----| / 3__
----------------------------------------|
----------------------------------------|

---------------------------------------|
---------------------------------------|
---------------------------------------|
1-0------------------------------------|
--  -3__5-6-5-3 / 5-5__1-3-5 (5)__-3-5-|_
---------------------------------------|

Outro:

-------------------------------------|
-------------------------------------|
----0-2-3----0-2-3----0-2-3----0-2-3-|
--0---------0-------0---------0------|
-------------------------------------|
-3---------3-------3---------3-------|


Lyrics:

Strophe 1:

kiss me sweet

I'm sleeping in silence
all alone
in ice and snow


in my dreams

I'm calling your name

you are my love

Strophe 2:



in your eyes

I search for my memory

lost in vain

so far in the scenery

hold me tight,
and swear again and again

we'll never be apart



Bridge:

if you could touch my feathers softly

I'll give you my love

we set sail in the darkness of the night

out to the sea
to find me there

to find you there
love me now

if you dare...

Strophe 3:



kiss me sweet

I'm sleeping in sorrow

all alone
to see you tomorrow


in my dream

I'm calling your name

you are my love...
my love...
Tap to rate this tab
 
# A B C D E F G H I J K L M N O P Q R S T U V W X Y Z